Cifra Club

Aprenda

Palhacinho

Whindersson Nunes

Cifra: Principal (violão e guitarra)
tom: G
Intro: Am9  G  D/F# (2x)

Intro:

Parte 1 de 2

   Am9         G           D/F#
E|------------------------------------
B|-----0----0------0----0------3------
G|---5---5-------4---4-------2---2----
D|-7-------7---5-------5---4-------4--
A|------------------------------------
E|------------------------------------

Parte 2 de 2

   Am9         G           D/F#
E|------------------------------------
B|-----0----0------0----0------3------
G|---5---5-------4---4-------2--------
D|-7-------7---5-------5---4----------
A|------------------------------------
E|------------------------------------

Primeira Parte:

D/A               F#m7(11)/C#
Esse amor que nasceu em mim
         Em                               A9
Parece até coisa de filme mas não é, é assim
   D/A               F#m7(11)/C#
Você resgatou o que teve um fim
             Em                                        A9
Fez meu coração bater de um jeito diferente dentro de mim

Segunda Parte:

        Bm11                      F#m7(11)/C#
Talvez seja o jeito que você joga o cabelo
      Em                         A9
Ou o jeito que você sorri quando eu to perto
        Bm11                   F#m7(11)/C#
Eu não sei se o jeito de você caminhar
       Em                     A9
Eu só sei que é você que eu quero

Primeira Parte:

    D/A             F#m7(11)/C#
Não é fácil assim, você daí
         Em
E eu daqui te amando por Wi-fi
               A9
Não é fácil assim
     D/A      F#m7(11)/C#
Mas mesmo daí e eu daqui
                 Em
Eu sinto uma vontade de largar tudo e correr
              A9
Ter você pra mim

Segunda Parte:

        Bm11                 F#m7(11)/C#
Para e deixa eu olhar pra você um pouco
      Em                   A9
você fica tão linda com esse batom
      Bm11                  F#m7(11)/C#
Deixa eu saber se teu lábio é macio
   Em                     A9
Saber se teu beijo é tão bom

      Bm11                  F#m7(11)/C#
Fico tão feliz quando você ri de mim
           Em             A9
Sei que é meio difícil de entender
        Bm11
Eu sou só um palhacinho
             F#m7(11)/C#
Querendo alguém pra fazer rir
         Em                   A9
Esse alguém que eu quero é você

        Bm11                 F#m7(11)/C#
Para e deixa eu olhar pra você um pouco
      Em                   A9
você fica tão linda com esse batom
      Bm11                  F#m7(11)/C#
Deixa eu saber se teu lábio é macio
   Em                     A9
Saber se teu beijo é tão bom

      Bm11                  F#m7(11)/C#
Fico tão feliz quando você ri de mim
           Em             A9
Sei que é meio difícil de entender
        Bm11
Eu sou só um palhacinho
             F#m7(11)/C#
Querendo alguém pra fazer rir
         Em                   A9
Esse alguém que eu quero é você
              D/A
Eu quero é você

Final: Am9  G  D/F# (2x)

Final:

Parte 1 de 2

   Am9         G           D/F#
E|------------------------------------
B|-----0----0------0----0------3------
G|---5---5-------4---4-------2---2----
D|-7-------7---5-------5---4-------4--
A|------------------------------------
E|------------------------------------

Parte 2 de 2

   Am9         G           D/F#
E|------------------------------------
B|-----0----0------0----0------3------
G|---5---5-------4---4-------2--------
D|-7-------7---5-------5---4----------
A|------------------------------------
E|------------------------------------

( D/A )
Composição de Whindersson Nunes
97.124 exibições
    • ½ Tom
    • A
    • Bb
    • B
    • C
    • Db
    • D
    • Eb
    • E
    • F
    • F#
    • G
    • Ab
  • Adicionar à lista

    0 comentários

    Ver todos os comentários

    Conseguiu tocar?

    30 Tocaram 0 Ainda não

    Grave um vídeo tocando Palhacinho e nos envie!

    00:00 / 00:00
    outros vídeos desta música
    repetir qualidade Automático
    Outros vídeos desta música
    00:00 / 00:00
    Automático

    Cifra Club Pro

    Aproveite o Cifra Club com benefícios exclusivos e sem anúncios
    Cifra Club Pro
    Aproveite o Cifra Club com benefícios exclusivos e sem anúncios
    OK