Cifra Club

Vidas Paralelas

Ximena Sariñana

Cifra: Principal (violão e guitarra)
Selo Cifra Club: esta cifra foi revisada para atender aos critérios oficiais da nossa Equipe de Qualidade.
tom: Db
E|-----------------------------------14--| I
B|----------2-s-13--11--13| B1_b1/2--------I
G|---------------------------------------| I
D|---------------------------------------| I
A|---------------------------------------| I
E|---------------------------------------| I

E|---------------------------------------| I
B|-------------13| B1-13v------------------I
G|---------------------------------------| I
D|---------------------------------------| I
A|---------------------------------------| I
E|---------------------------------------| I

E|---------------------------------------| I
B|---------------------------------------| I
G|----------13---12---11-----------------| I
D|---------------------------------------| I
A|---------------------------------------| I
E|---------------------------------------| I

E|--------------------------------14-----| II
B|----------2-s-13--11--13| B1_b1/2--------I
G|---------------------------------------| I
D|---------------------------------------| I
A|---------------------------------------| I
E|---------------------------------------| I

E|---------------------------------------| I
B|------14| B1--14v------------------------I
G|---------------------------------------| I
D|---------------------------------------| I
A|---------------------------------------| I
E|---------------------------------------| I
Outros vídeos desta música
78 exibições
    • ½ Tom
    • A
    • Bb
    • B
    • C
    • Db
    • D
    • Eb
    • E
    • F
    • F#
    • G
    • Ab
  • Adicionar à lista

Afinação da cifra

Afinador online

    0 comentários

    Ver todos os comentários

    Entre para o Cifra Club PRO

    Tenha acesso a benefícios exclusivos no App e no Site

    • Chega de anúncios

    • Mais recursos no app do Afinador

    • Atendimento Prioritário

    • Aumente seu limite de lista

    • Ajude a produzir mais conteúdo

    Cifra Club Pro

    Aproveite o Cifra Club com benefícios exclusivos e sem anúncios
    Cifra Club Pro
    Aproveite o Cifra Club com benefícios exclusivos e sem anúncios
    OK