Cifra Club

Cartoon Music For Superheroes

Albert Hammond Jr.

Cifra: Principal (violão e guitarra)
tom: G
By: Akonite

Verse
e|---3--3--3---3--3--3---3--3--3---3--3--3--|
B|--5--5------3--3------5--5------5--5------|
G|-5--5--5---4--4--4---5--5--5---5--5--5----|
D|------------------------------------------|
A|------------------------------------------|
E|------------------------------------------|x3

Chorus
e|-8888-10101010-1212121212-101010--|
B|----------------------------------|
G|----------------------------------|
D|----------------------------------|
A|----------------------------------|
E|----------------------------------|x3

e|-88888888-777-55555-3333----------|
B|----------------------------------|
G|----------------------------------|
D|----------------------------------|
A|----------------------------------|
E|----------------------------------|

Verse
e|---3--3--3---3--3--3---3--3--3---3--3--3--|
B|--5--5------3--3------5--5------5--5------|
G|-5--5--5---4--4--4---5--5--5---5--5--5----|
D|------------------------------------------|
A|------------------------------------------|
E|------------------------------------------|x5

Chorus
e|-8888-10101010-1212121212-101010--|
B|----------------------------------|
G|----------------------------------|
D|----------------------------------|
A|----------------------------------|
E|----------------------------------|x3

e|-88888888-777-55555-3333----------|
B|----------------------------------|
G|----------------------------------|
D|----------------------------------|
A|----------------------------------|
E|----------------------------------|

Ng-Muk-Yuen


00:00 / 00:00
Outros vídeos desta música
Repetir
Outros vídeos desta música
Composição de Albert Hammond, Jr. / Jon Larue
1.269 exibições
    • ½ Tom
    • A
    • Bb
    • B
    • C
    • Db
    • D
    • Eb
    • E
    • F
    • F#
    • G
    • Ab
  • Adicionar à lista

    0 comentários

    Ver todos os comentários

    Conseguiu tocar?

    0 Tocaram 0 Ainda não

    Grave um vídeo tocando Cartoon Music For Superheroes e nos envie!

    Entre para oCifra Club PRO

    Tenha acesso a benefícios exclusivos no App e no Site

    • Chega de anúncios

    • Prioridade de compra em lançamentos

    • Mais recursos no app do Afinador

    • Atendimento Prioritário

    • Descontos nos produtos Cifra Club

    • Ajude a produzir mais conteúdo

    00:00 / 00:00

    Cifra Club Pro

    Aproveite o Cifra Club com benefícios exclusivos e sem anúncios
    Cifra Club Pro
    Aproveite o Cifra Club com benefícios exclusivos e sem anúncios
    OK