Cifra Club

Rei da Glória

Aline Barros

Cifra: Principal
exibições 155.738
Tom: D
    Intro: G  D  G
E|-----------------------------------------------|
B|---3----3---2h3p2---3-----3---3---2h3p2----3---|
G|-----2----2-------2---2-----0---2-------2----2-|
D|-0-----------------=----0----------------------|
A|-----------------------------------------------|
E|-----------------------------------------------|

  D                                G7M
 Quem é esse Rei da glória, que me abraça com amor
    D                    G7M
 E com falar suave, surpreende meu viver
 G                         Bm7
 Meu coração recorda, o perdão que me lavou
         A                G                  D
 Quem é esse Rei da Glória, Ele é tudo para mim

 D                            G7M
Quem é esse Rei de anjos, o Príncipe da Paz
 D                        G7M
Revela seus mistérios, do alto para mim
 G                        Bm7
Meu Espírito almeja, sua graça a me firmar
        A                G                    D
Quem é esse Rei da Glória, filho do Deus Criador

Refrão:
            G         Bm7
Seu nome é Jesus, Precioso
    A             G               D
Poderoso, Rei do meu ser, Rei da glória

 D                               G7M
Quem é esse Rei da glória, Majestoso e com poder
  D                  G7M
Sabedoria plena, gracioso Rei dos reis
  G                              Bm7
Senhor dos céus e terra, de tudo é o Criador
        A                G                  D
Quem é esse Rei da Glória, Ele é tudo para mim

    Solo: G  D  G
E|-----------------------------------------------|
B|12--7--5--10--7--5--7--12--7--5--7h8p7h8p7-----|
G|-----------------------------------------------|
D|-----------------------------------------------|
A|-----------------------------------------------|
E|-----------------------------------------------|
Acordes para:

    0 comentários

      mostrar mais comentários

      Conseguiu tocar?

      15tocaram0ainda não

      Grave um vídeo tocando Rei da Glória e mande pra gente!

      00:00 / 00:00
      outros vídeos desta música
      repetirqualidadeautomática
      Outro vídeos desta música
        00:00 / 00:00
        automática
        OK