Cifra Club

Aprenda

Rei da Glória

Aline Barros

Cifra: Principal (violão e guitarra)
Já pensou em usar uma coleção de roupas do Cifra Club? Responda as perguntas abaixo e nos ajude nessa missão! →
tom: D
[Intro] G  D  G

E|----------------------------------------------------|
B|---3-----3---2h3p2----------------------------------|
G|-----2-------------2---2----------------------------|
D|-0-----0---0---------0---0--------------------------|
A|----------------------------------------------------|
E|----------------------------------------------------|

E|----------------------------------------------------|
B|---3-----3---2h3p2----------------------------------|
G|-----0-------------2---2----------------------------|
D|-0-----0---0---------0---0--------------------------|
A|----------------------------------------------------|
E|----------------------------------------------------|

[Primeira Parte]

       D                        
Quem é esse Rei da glória
          G7M
Que me abraça com amor
   D               
E com falar suave
      G7M
Surpreende meu viver
     G                   
Meu coração recorda
      Bm7
O perdão que me lavou
       A                  G 
Quem é esse Rei da Glória
                 D
Ele é tudo para mim

[Segunda Parte]

       D                 
Quem é esse Rei de anjos
    G7M
O Príncipe da Paz
   D                    
Revela seus mistérios
   G7M
Do alto para mim
       G                  
Meu espírito almeja
      Bm7
Sua graça a me firmar
       A                  G 
Quem é esse Rei da Glória
                   D
Filho do Deus criador

[Refrão]

            G          Bm7
Seu nome é Jesus, Precioso
     A            G      
Poderoso, Rei do meu ser
         D
Rei da glória


[Terceira Parte]

       D                  
Quem é esse Rei da glória
      G7M
Majestoso e com poder
   D             
Sabedoria plena
     G7M
Gracioso Rei dos reis
    G                     
Senhor dos céus e terra
        Bm7
De tudo é o criador
       A                  G 
Quem é esse Rei da Glória
                 D
Ele é tudo para mim

[Refrão]

            G          Bm7
Seu nome é Jesus, Precioso
     A            G      
Poderoso, Rei do meu ser
         D
Rei da glória

[Solo] G  D  G

E|----------------------------------------------------|
B|-3-5-3-5b7----b12r10-7\5~---10\7-5-5/7~-------------|
G|----------------------------------------------------|
D|----------------------------------------------------|
A|----------------------------------------------------|
E|----------------------------------------------------|

E|----------------------------------------------------|
B|-b12r10-7\5~---7b8r7b8r7b8r7----3/12-12~------------|
G|----------------------------------------------------|
D|----------------------------------------------------|
A|----------------------------------------------------|
E|----------------------------------------------------|

[Terceira Parte]

    G                     
Senhor dos céus e terra
        Bm7
De tudo é o criador
       A                  G 
Quem é esse Rei da Glória
                 D
Ele é tudo para mim

[Refrão]

            G          Bm7
Seu nome é Jesus, Precioso
     A            G      
Poderoso, Rei do meu ser
         D
Rei da glória

            G          Bm7
Seu nome é Jesus, Precioso
     A            G      
Poderoso, Rei do meu ser
         D
Rei da glória

            G          Bm7
Seu nome é Jesus, Precioso
     A            G      
Poderoso, Rei do meu ser
         D
Rei da glória

[Final] D
Composição de Bradley B. C. Avery / David Carre / Johny Mac / Mark Lee / Samuel Tai Anderson
184.046 exibições
    • ½ Tom
    • A
    • Bb
    • B
    • C
    • Db
    • D
    • Eb
    • E
    • F
    • F#
    • G
    • Ab
  • Adicionar à lista

    0 comentários

    Ver todos os comentários
    00:00 / 00:00
    outros vídeos desta música
    repetir qualidade Automático
    Outros vídeos desta música
    00:00 / 00:00
    Automático

    Cifra Club Pro

    Aproveite o Cifra Club com benefícios exclusivos e sem anúncios
    Cifra Club Pro
    Aproveite o Cifra Club com benefícios exclusivos e sem anúncios
    OK