Cifra Club

Ressuscita-me

Aline Barros

Cifra: Versão 7
exibições 13.594
Tom: D
E|-2-2-2-2-2--0-0---0--------------|
B|----------------3---2-0----------|
G|------------------------2--------|
D|---------------------------------|
A|---------------------------------|
E|---------------------------------|

E|--------------0-2----------------|
B|-3-3-3-3-3-3------3-0-0----------|
G|---------------------------------|
D|---------------------------------|
A|---------------------------------|
E|---------------------------------|

E|-2-2-2-2-2-2--0-0-----0--------------------------------|
B|-------------------3-----------------------------------|
G|-------------------------------------------------------|

E|-2-2-2-2-2-2-2-0-0-----0-------------------------------|
B|--------------------3-----3----------------------------|
G|-------------------------------------------------------|

E|-------------0-2-5-5-----------------------------------|
B|-3-3-3-3-3-3---------3---------------------------------|
G|-------------------------------------------------------|

E|-3-3-3-3-2-2-2-0-2-------------------------------------|
B|-------------------------------------------------------|
G|-------------------------------------------------------|

E|-2-2-2-2-0-0-0---------------3-3-3-3-3-2-2-------------|
B|---------------3-3-3-3-3-3-3---------------------------|
G|-------------------------------------------------------|
D|-------------------------------------------------------|
A|-------------------------------------------------------|
E|-------------------------------------------------------|

E|---------0-0-0-0-0-----------------0-0-0-0-0-0---0-----|
B|-3-3-3-3-----------3-3-3-3-3-3-3-3------------3--------|
G|-------------------------------------------------------|
D|-------------------------------------------------------|
A|-------------------------------------------------------|
E|-------------------------------------------------------|

E|-3-2-3-2-3-2-3-5-5-0-----------------------------------|
B|-------------------------------------------------------|
G|-------------------------------------------------------|
D|-------------------------------------------------------|
A|-------------------------------------------------------|
E|-------------------------------------------------------|

E|-----------5----5-3-3--2-2-0-0-0-2-3-3-2-0-2-3-2-0-2-0-|
B|-3-3-3-3-3--3-3----------------------------------3-----3|
G|-------------------------------------------------------|
D|-------------------------------------------------------|
A|-------------------------------------------------------|
E|-------------------------------------------------------|

E|-----------5-----7-5-5-5-0-----------------------------|
B|-3-3-3-3-3---3-3---------------------------------------|
G|-------------------------------------------------------|

E|-0-0-0-2-3-3-2-0-2-3-2-3-2-0---------------------------|
B|-----------------------------3-3-2-0-3-3---------------|
G|-------------------------------------------------------|
Acordes para:
    Composição: Anderson FreireColaboração e revisão:
    • Guilherme Iack
    • Lucas Raphael

    0 comentários

      mostrar mais comentários

      Conseguiu tocar?

      2tocaram1ainda não

      Grave um vídeo tocando Ressuscita-me e mande pra gente!

      00:00 / 00:00
      outros vídeos desta música
      repetirqualidadeautomática
      Outro vídeos desta música
        00:00 / 00:00
        automática
        OK