Cifra Club

Somos Livres

Aline Barros

Tab de baixo: Principal
Riff 1: Introdução e primeira parte da musica (2x) 
G|----------------------------------------------------------------------|
D|----------------------------------------------------------------------|
A|-4-4-4-7-7-7-------7-7--6-7-7-6-6---4-4-4-7-7-7-------9-9--7-9-9-7-6-4|
E|-------------5-5-5------------------------------7-7-7-----------------|


Riff 2: segunda parte da introdução (2x) e solo 
G|----------------------------------------------------------|
D|----------------------------------------------------------|
A|-4-4-4/7-7-7-7-7/9-9-9-9/12-12-12-12----------------------|
E|----------------------------------------------------------|


Riff 3: segunda parte da musica "Vamos fazer com nossas mãos" 
G|-----------------------------------------------------------------------|
D|-----------------------------------------------------------------------|
A|-4-4-4-------2-2-2--------4-4-4-------7-7-7--------4-4-x---------------|
E|-------5-5-5-------2-2-2--------5-5-5-------7-7-7--------4-4-x-5-5-x-7-|


Riff 4: Refrão
G|----------------------------------------------------------|
D|----------------------------------------------------------|
A|-7-7-7-------------------7-7-7----------------------------|
E|-------7-7-7-9-9-9-5-5-5-------7-7-7-9-9-9--5-5-7-7-------|


Riff 5: "Nada pode nos deter" 
G|------------------------------------------------|
D|---------1-2---------1-2---------1-2------------|
A|-------------2-2-2-2-----0-0-0-0-----2-2-2-2-4--|
E|-2-2-2-2----------------------------------------|

G|-------------------------------------------------------|
D|---------1-2---------------------------1-2-------------|
A|-------------2-2-2-2/4-4/6-6/7-0-0-0-0-----2-2-2-2/14--|
E|-2-2-2-2-----------------------------------------------|
Composição de Aline Barros / Anderson Freire
Colaboração e revisão:
  • Khauan Barbosa
  • Thayllon
4.586 exibições

0 comentários

Ver todos os comentários
00:00 / 00:00
Outros vídeos desta música
Repetir Qualidade Automático
Outros vídeos desta música
00:00 / 00:00
Automático

Cifra Club Pro

Aproveite o Cifra Club com benefícios exclusivos e sem anúncios
Cifra Club Pro
Aproveite o Cifra Club com benefícios exclusivos e sem anúncios
OK