Cifra Club

Assim Os Dias Passarão (Part. Renato Teixeira)

Almir Sater

Cifra: Principal (violão e guitarra)
Selo Cifra Club: esta cifra foi revisada para atender aos critérios oficiais da nossa Equipe de Qualidade.
tom: Bm
[Tab - Intro]

E|-------2-0--------------------------------|
B|-----0------0h3\2-0-----------------------|
G|-2/4----------------2/4-------------------|
D|------------------------------------------|
A|------------------------------------------|
E|------------------------------------------|

( Bm  E7  Bm  E7 )

[Primeira Parte]

Bm                        E7  E7(4)  E7
   Dezembro vai, janeiro vem
Bm                               E  E7(4)  E7
   O tempo passa veloz como um trem
G                                  D
  No rádio a noticia, um amigo se foi
A                                    Bm  Bm11
  Atrás dos mistérios que sempre buscou
G
  Mais uma pra estrada
                 D2
Mais um fim de show
A
  Ao som das guitarras
                 Bm
Do bom rock n' roll

( E7  Bm  E7  E7(4)  E7 )

[Segunda Parte]

Bm                      E7  E7(4)  E7
   O tempo trás suas lições
Bm                           E7  E7(4)  E7
   E as grava em nossos corações
G                                 D
  Contando a história assim como foi
A
  Mostrando os caminhos
                Bm  A/C#  D  D/F#
Que irão nos levar
G                                   D
  Como se fosse o rio correndo pro mar
A                                   Bm
  Como se fossem pedras no rio a rolar

( G  E7  A )
( Bm  E7  Bm  E )
( G  D  A  A7 )
( Bm  A/C#  D  D/F# )
( G  D  A  Bm )
( G  E7  A )

[Terceira Parte]

Bm                     E7  E7(4)  E7
   Assim os dias passarão
Bm                     E7  E7(4)  E7
   Virão as novas gerações
G                                 D
  Outras perguntas, prováveis canções
A                                        Bm  
  Outro mundo, outra gente, outras dimensões

( A/C#  D  D/F# )

G                                D
  E na hora marcada, em algum lugar
A                                  Bm
  Uma estrela virá pra lhe acompanhar

[Final] G  E  A  Bm

[Tab - Final]

E|------------------------------------------|
B|-7-5-7-5-7-3-0--7-5-7-5-7-3-0-------------|
G|------------------------------------------|
D|------------------------------------------|
A|------------------------------------------|
E|------------------------------------------|

E|------------------------------------------|
B|-7-5-7-5-8-3-0--7-5-7-5-8-3-0-------------|
G|------------------------------------------|
D|------------------------------------------|
A|------------------------------------------|
E|------------------------------------------|

E|------------------------------------------|
B|-7-5-7-5-9-5-0--7-5-7-5-9-5-0-------------|
G|------------------------------------------|
D|------------------------------------------|
A|------------------------------------------|
E|------------------------------------------|

E|-5-7-9--10-9-7-5/7------------------------|
B|------------------------------------------|
G|------------------------------------------|
D|------------------------------------------|
A|------------------------------------------|
E|------------------------------------------|
00:00 / 00:00
Outros vídeos desta música
Repetir
Outros vídeos desta música
80.772 exibições
  • Simplificar cifra
    • ½ Tom
    • Am
    • Bbm
    • Bm
    • Cm
    • C#m
    • Dm
    • Ebm
    • Em
    • Fm
    • F#m
    • Gm
    • G#m
  • Adicionar à lista

Afinação da cifra

Afinador online

    0 comentários

    Ver todos os comentários

    Entre para o Cifra Club PRO

    Tenha acesso a benefícios exclusivos no App e no Site

    • Chega de anúncios

    • Mais recursos no app do Afinador

    • Atendimento Prioritário

    • Aumente seu limite de lista

    • Ajude a produzir mais conteúdo

    00:00 / 00:00

    Cifra Club Pro

    Aproveite o Cifra Club com benefícios exclusivos e sem anúncios
    Cifra Club Pro
    Aproveite o Cifra Club com benefícios exclusivos e sem anúncios
    OK