Cifra Club

Tocando Em Frente

Almir Sater

Cifra: Principal (violão e guitarra)
exibições 2.049.664
Tom: C
[Intro]

E|------------------|
B|------------------|
G|---0---0---0------|
D|-----0---2--------|
A|-3----------------|
E|------------------|

[Primeira Parte]

(Parte 1 de 3)

E|-0-1-3-7--7---------7---------------------|
B|-1-3-5-8----8-----8---8-------------------|
G|--------------7-7-------7-----------------|
D|------------------------------------------|
A|------------------------------------------|
E|------------------------------------------|

E|-----5----------5-------------------------|
B|---6---6------6---6-----------------------|
G|-5-------5--5-------5---------------------|
D|------------------------------------------|
A|------------------------------------------|
E|------------------------------------------|

(Parte 2 de 3)

E|-----0-0-0--------------------------------|
B|---1---1-1--------------------------------|
G|-0----------------------------------------|
D|------------------------------------------|
A|------------------------------------------|
E|------------------------------------------|

(Repete Parte 1 de 3)

E|-0-1-3-7--7---------7---------------------|
B|-1-3-5-8----8-----8---8-------------------|
G|--------------7-7-------7-----------------|
D|------------------------------------------|
A|------------------------------------------|
E|------------------------------------------|

E|-----5----------5-------------------------|
B|---6---6------6---6-----------------------|
G|-5-------5--5-------5---------------------|
D|------------------------------------------|
A|------------------------------------------|
E|------------------------------------------|

(Parte 3 de 3)

E|-----0-0--1-1/3-3-3-3-----3---------3-----|
B|---1---1--3-3/5-5-5-5---3---3-----3---3---|
G|-0--------------------4-------5-5-------5-|
D|------------------------------------------|
A|------------------------------------------|
E|------------------------------------------|

G                              F9
 Ando devagar porque já tive pressa
                                   C
E levo esse sorriso, porque já chorei demais
 G                                         F9
Hoje me sinto mais forte, mais feliz quem sabe
                                C                G
Só levo a certeza de que muito pouco eu sei, ou nada sei

[Refrão]

(Parte 1 de 3)

E|-----1---------1---------1---------1------|
B|---1---1-----3---3-----1---1-----3---3----|
G|-2-------2-2-------2-2-------2-2-------2--|
D|------------------------------------------|
A|------------------------------------------|
E|------------------------------------------|

(Parte 2 de 3)

E|-----0-0--0-0-1-1-1/3-3-0-----------------|
B|---1---1--1-1-3-3-3/5-5-------------------|
G|-0----------------------------------------|
D|------------------------------------------|
A|------------------------------------------|
E|------------------------------------------|

(Repete Parte 1 de 3)

E|-----1---------1---------1---------1------|
B|---1---1-----3---3-----1---1-----3---3----|
G|-2-------2-2-------2-2-------2-2-------2--|
D|------------------------------------------|
A|------------------------------------------|
E|------------------------------------------|

(Parte 3 de 3)

E|-----0----------0-------------------------|
B|---1---1------1---1-----------------------|
G|-0-------0--0-------0---------------------|
D|------------------------------------------|
A|------------------------------------------|
E|------------------------------------------|

F9            Dm             F9
 Conhecer as manhas e as manhãs
             Dm             C
O sabor das massas e das maçãs
F9             Dm               F9
 É preciso o amor pra poder pulsar
           Dm               F9
É preciso paz pra poder sorrir
              C
É preciso a chuva para florir

[Segunda Parte]

(Parte 1 de 3)

E|-0-1-3-7--7---------7---------------------|
B|-1-3-5-8----8-----8---8-------------------|
G|--------------7-7-------7-----------------|
D|------------------------------------------|
A|------------------------------------------|
E|------------------------------------------|

E|-----5----------5-------------------------|
B|---6---6------6---6-----------------------|
G|-5-------5--5-------5---------------------|
D|------------------------------------------|
A|------------------------------------------|
E|------------------------------------------|

(Parte 2 de 3)

E|-----0-0-0--------------------------------|
B|---1---1-1--------------------------------|
G|-0----------------------------------------|
D|------------------------------------------|
A|------------------------------------------|
E|------------------------------------------|

(Repete Parte 1 de 3)

E|-0-1-3-7--7---------7---------------------|
B|-1-3-5-8----8-----8---8-------------------|
G|--------------7-7-------7-----------------|
D|------------------------------------------|
A|------------------------------------------|
E|------------------------------------------|

E|-----5----------5-------------------------|
B|---6---6------6---6-----------------------|
G|-5-------5--5-------5---------------------|
D|------------------------------------------|
A|------------------------------------------|
E|------------------------------------------|

(Parte 3 de 3)

E|-----0-0--1-1/3-3-3-3-----3---------3-----|
B|---1---1--3-3/5-5-5-5---3---3-----3---3---|
G|-0--------------------4-------5-5-------5-|
D|------------------------------------------|
A|------------------------------------------|
E|------------------------------------------|

 G                                    F9
Penso que cumprir a vida seja simplesmente
                                        C
Compreender a marcha, e ir tocando em frente
 G                                   F9
Como um velho boiadeiro levando a boiada
                                      C
Eu vou tocando os dias pela longa estrada eu vou
    G
Estrada eu sou

[Refrão]

(Parte 1 de 3)

E|-----1---------1---------1---------1------|
B|---1---1-----3---3-----1---1-----3---3----|
G|-2-------2-2-------2-2-------2-2-------2--|
D|------------------------------------------|
A|------------------------------------------|
E|------------------------------------------|

(Parte 2 de 3)

E|-----0-0--0-0-1-1-1/3-3-0-----------------|
B|---1---1--1-1-3-3-3/5-5-------------------|
G|-0----------------------------------------|
D|------------------------------------------|
A|------------------------------------------|
E|------------------------------------------|

(Repete Parte 1 de 3)

E|-----1---------1---------1---------1------|
B|---1---1-----3---3-----1---1-----3---3----|
G|-2-------2-2-------2-2-------2-2-------2--|
D|------------------------------------------|
A|------------------------------------------|
E|------------------------------------------|

(Parte 3 de 3)

E|-----0----------0-------------------------|
B|---1---1------1---1-----------------------|
G|-0-------0--0-------0---------------------|
D|------------------------------------------|
A|------------------------------------------|
E|------------------------------------------|

F9            Dm             F9
 Conhecer as manhas e as manhãs
             Dm             C
O sabor das massas e das maçãs
F9             Dm               F9
 É preciso o amor pra poder pulsar
           Dm               F9
É preciso paz pra poder sorrir
              C
É preciso a chuva para florir

[Terceira Parte]

(Parte 1 de 3)

E|-0-1-3-7--7---------7---------------------|
B|-1-3-5-8----8-----8---8-------------------|
G|--------------7-7-------7-----------------|
D|------------------------------------------|
A|------------------------------------------|
E|------------------------------------------|

E|-----5----------5-------------------------|
B|---6---6------6---6-----------------------|
G|-5-------5--5-------5---------------------|
D|------------------------------------------|
A|------------------------------------------|
E|------------------------------------------|

(Parte 2 de 3)

E|-----0-0-0--------------------------------|
B|---1---1-1--------------------------------|
G|-0----------------------------------------|
D|------------------------------------------|
A|------------------------------------------|
E|------------------------------------------|

(Repete Parte 1 de 3)

E|-0-1-3-7--7---------7---------------------|
B|-1-3-5-8----8-----8---8-------------------|
G|--------------7-7-------7-----------------|
D|------------------------------------------|
A|------------------------------------------|
E|------------------------------------------|

E|-----5----------5-------------------------|
B|---6---6------6---6-----------------------|
G|-5-------5--5-------5---------------------|
D|------------------------------------------|
A|------------------------------------------|
E|------------------------------------------|

(Parte 3 de 3)

E|-----0-0--1-1/3-3-3-3-----3---------3-----|
B|---1---1--3-3/5-5-5-5---3---3-----3---3---|
G|-0--------------------4-------5-5-------5-|
D|------------------------------------------|
A|------------------------------------------|
E|------------------------------------------|

 G                                 F9
Todo mundo ama um dia todo mundo chora
                                      C
Um dia a gente chega, no outro vai embora
G                                F9
 Cada um de nós compõe a sua história
                                    C
E cada ser em si, carrega o dom de ser capaz
    G
De ser feliz

[Refrão]

(Parte 1 de 3)

E|-----1---------1---------1---------1------|
B|---1---1-----3---3-----1---1-----3---3----|
G|-2-------2-2-------2-2-------2-2-------2--|
D|------------------------------------------|
A|------------------------------------------|
E|------------------------------------------|

(Parte 2 de 3)

E|-----0-0--0-0-1-1-1/3-3-0-----------------|
B|---1---1--1-1-3-3-3/5-5-------------------|
G|-0----------------------------------------|
D|------------------------------------------|
A|------------------------------------------|
E|------------------------------------------|

(Repete Parte 1 de 3)

E|-----1---------1---------1---------1------|
B|---1---1-----3---3-----1---1-----3---3----|
G|-2-------2-2-------2-2-------2-2-------2--|
D|------------------------------------------|
A|------------------------------------------|
E|------------------------------------------|

(Parte 3 de 3)

E|-----0----------0-------------------------|
B|---1---1------1---1-----------------------|
G|-0-------0--0-------0---------------------|
D|------------------------------------------|
A|------------------------------------------|
E|------------------------------------------|

F9            Dm             F9
 Conhecer as manhas e as manhãs
             Dm             C
O sabor das massas e das maçãs
F9             Dm               F9
 É preciso o amor pra poder pulsar
           Dm               F9
É preciso paz pra poder sorrir
              C
É preciso a chuva para florir

(Parte 1 de 3)

E|-0-1-3-7--7---------7---------------------|
B|-1-3-5-8----8-----8---8-------------------|
G|--------------7-7-------7-----------------|
D|------------------------------------------|
A|------------------------------------------|
E|------------------------------------------|

E|-----5----------5-------------------------|
B|---6---6------6---6-----------------------|
G|-5-------5--5-------5---------------------|
D|------------------------------------------|
A|------------------------------------------|
E|------------------------------------------|

(Parte 2 de 3)

E|-----0-0-0--------------------------------|
B|---1---1-1--------------------------------|
G|-0----------------------------------------|
D|------------------------------------------|
A|------------------------------------------|
E|------------------------------------------|

(Repete Parte 1 de 3)

E|-0-1-3-7--7---------7---------------------|
B|-1-3-5-8----8-----8---8-------------------|
G|--------------7-7-------7-----------------|
D|------------------------------------------|
A|------------------------------------------|
E|------------------------------------------|

E|-----5----------5-------------------------|
B|---6---6------6---6-----------------------|
G|-5-------5--5-------5---------------------|
D|------------------------------------------|
A|------------------------------------------|
E|------------------------------------------|

(Parte 3 de 3)

E|-----0-0--1-1/3-3-3-3-----3---------3-----|
B|---1---1--3-3/5-5-5-5---3---3-----3---3---|
G|-0--------------------4-------5-5-------5-|
D|------------------------------------------|
A|------------------------------------------|
E|------------------------------------------|

G                              F9
 Ando devagar porque já tive pressa
                                   C
E levo esse sorriso, porque já chorei demais
G                                F9
 Cada um de nós compõe a sua história
                                    C
E cada ser em si, carrega o dom de ser capaz
    G
De ser feliz

[Passagem Final]

                  G
E|--------------3-----|
B|--------------3-----|
G|---0---0---0--0-----|
D|--------------0-----|
A|-3---2---0----2-----|
E|--------------3-----|
Acordes para:

    0 comentários

    mostrar mais comentários

    Conseguiu tocar?

    134 tocaram 15 ainda não

    Grave um vídeo tocando Tocando Em Frente e mande pra gente!

    00:00 / 00:00
    outros vídeos desta música
    repetir qualidade Automático
    Outro vídeos desta música
    00:00 / 00:00
    Automático
    Capítulos
    • Início
    • Acordes da primeira parte
    • Tocando primeira parte
    • Ensinando ritmo padrão (violão base)
    • Acordes do refrão
    • Tocando refrão
    • Ensinando ritmo do refrão
    • Ensinando solo primeira parte (parte 1)
    • Ensinando solo primeira parte (parte 2)
    • Ensinando solo primeira parte (parte 3)
    • Ensinando solo primeira parte (tablatura)
    • Ensinando solo do refrão (parte 1)
    • Ensinando solo do refrão (parte 2)
    • Ensinando solo do refrão (parte 3)
    • Ensinando solo do refrão (tablatura)
    • Tocando trecho da música
    • Ensinando passagem final
    • Encerramento
    • Extras
    OK