Cifra Club

Tocando Em Frente

Almir Sater

Cifra: Principal (violão e guitarra)
Selo Cifra Club: esta cifra foi revisada para atender aos critérios oficiais da nossa Equipe de Qualidade.
tom: C
[Tab - Intro]

E|------------------------------------------|
B|------------------------------------------|
G|---0---0---0------------------------------|
D|-----0---2--------------------------------|
A|-3----------------------------------------|
E|------------------------------------------|

[Primeira Parte]

Parte 1 de 3
E|-0-1-3-7--7---------7---------------------|
B|-1-3-5-8----8-----8---8-------------------|
G|--------------7-7-------7-----------------|
D|------------------------------------------|
A|------------------------------------------|
E|------------------------------------------|

E|-----5----------5-------------------------|
B|---6---6------6---6-----------------------|
G|-5-------5--5-------5---------------------|
D|------------------------------------------|
A|------------------------------------------|
E|------------------------------------------|

Parte 2 de 3
E|-----0-0-0--------------------------------|
B|---1---1-1--------------------------------|
G|-0----------------------------------------|
D|------------------------------------------|
A|------------------------------------------|
E|------------------------------------------|

Parte 3 de 3
E|-----0-0--1-1/3-3-3-3-----3---------3-----|
B|---1---1--3-3/5-5-5-5---3---3-----3---3---|
G|-0--------------------4-------5-5-------5-|
D|------------------------------------------|
A|------------------------------------------|
E|------------------------------------------|

G                                F9
   Ando devagar porque já tive pressa

E levo esse sorriso
            C
Porque já chorei demais
G                          
   Hoje me sinto mais forte
                 F9
Mais feliz quem sabe

Eu só levo a certeza
              C
De que muito pouco eu sei
    G
Eu nada sei

[Refrão]

Parte 1 de 3
E|-----1---------1---------1---------1------|
B|---1---1-----3---3-----1---1-----3---3----|
G|-2-------2-2-------2-2-------2-2-------2--|
D|------------------------------------------|
A|------------------------------------------|
E|------------------------------------------|

Parte 2 de 3
E|-----0-0--0-0-1-1-1/3-3-0-----------------|
B|---1---1--1-1-3-3-3/5-5-------------------|
G|-0----------------------------------------|
D|------------------------------------------|
A|------------------------------------------|
E|------------------------------------------|

Parte 3 de 3
E|-----0----------0-------------------------|
B|---1---1------1---1-----------------------|
G|-0-------0--0-------0---------------------|
D|------------------------------------------|
A|------------------------------------------|
E|------------------------------------------|

F9               Dm             F9
    Conhecer as manhas e as manhãs
             Dm             C
O sabor das massas e das maçãs
F9                Dm               F9
    É preciso o amor pra poder pulsar
           Dm               F9
É preciso paz pra poder sorrir
              C
É preciso a chuva para florir

[Segunda Parte]

Parte 1 de 3
E|-0-1-3-7--7---------7---------------------|
B|-1-3-5-8----8-----8---8-------------------|
G|--------------7-7-------7-----------------|
D|------------------------------------------|
A|------------------------------------------|
E|------------------------------------------|

E|-----5----------5-------------------------|
B|---6---6------6---6-----------------------|
G|-5-------5--5-------5---------------------|
D|------------------------------------------|
A|------------------------------------------|
E|------------------------------------------|

Parte 2 de 3
E|-----0-0-0--------------------------------|
B|---1---1-1--------------------------------|
G|-0----------------------------------------|
D|------------------------------------------|
A|------------------------------------------|
E|------------------------------------------|

Parte 3 de 3
E|-----0-0--1-1/3-3-3-3-----3---------3-----|
B|---1---1--3-3/5-5-5-5---3---3-----3---3---|
G|-0--------------------4-------5-5-------5-|
D|------------------------------------------|
A|------------------------------------------|
E|------------------------------------------|

 G                     
Penso que cumprir a vida
             F9
Seja simplesmente

Compreender a marcha
                  C
E ir tocando em frente
 G              
Como um velho boiadeiro
             F9
Levando a boiada

Eu vou tocando os dias
               C
Pela longa estrada eu vou
       G
De estrada eu sou

[Refrão]

Parte 1 de 3
E|-----1---------1---------1---------1------|
B|---1---1-----3---3-----1---1-----3---3----|
G|-2-------2-2-------2-2-------2-2-------2--|
D|------------------------------------------|
A|------------------------------------------|
E|------------------------------------------|

Parte 2 de 3
E|-----0-0--0-0-1-1-1/3-3-0-----------------|
B|---1---1--1-1-3-3-3/5-5-------------------|
G|-0----------------------------------------|
D|------------------------------------------|
A|------------------------------------------|
E|------------------------------------------|

Parte 3 de 3
E|-----0----------0-------------------------|
B|---1---1------1---1-----------------------|
G|-0-------0--0-------0---------------------|
D|------------------------------------------|
A|------------------------------------------|
E|------------------------------------------|

F9               Dm             F9
    Conhecer as manhas e as manhãs
             Dm             C
O sabor das massas e das maçãs
F9                Dm               F9
    É preciso o amor pra poder pulsar
           Dm               F9
É preciso paz pra poder sorrir
              C
É preciso a chuva para florir

[Terceira Parte]

Parte 1 de 3
E|-0-1-3-7--7---------7---------------------|
B|-1-3-5-8----8-----8---8-------------------|
G|--------------7-7-------7-----------------|
D|------------------------------------------|
A|------------------------------------------|
E|------------------------------------------|

E|-----5----------5-------------------------|
B|---6---6------6---6-----------------------|
G|-5-------5--5-------5---------------------|
D|------------------------------------------|
A|------------------------------------------|
E|------------------------------------------|

Parte 2 de 3
E|-----0-0-0--------------------------------|
B|---1---1-1--------------------------------|
G|-0----------------------------------------|
D|------------------------------------------|
A|------------------------------------------|
E|------------------------------------------|

Parte 3 de 3
E|-----0-0--1-1/3-3-3-3-----3---------3-----|
B|---1---1--3-3/5-5-5-5---3---3-----3---3---|
G|-0--------------------4-------5-5-------5-|
D|------------------------------------------|
A|------------------------------------------|
E|------------------------------------------|

 G                     
Todo mundo ama um dia
             F9
Todo mundo chora

Um dia a gente chega
                C
No outro vai embora
G                                  F9
   Cada um de nós compõe a sua história

E cada ser em si
                  C
Carrega o dom de ser capaz
    G
De ser feliz

[Refrão]

Parte 1 de 3
E|-----1---------1---------1---------1------|
B|---1---1-----3---3-----1---1-----3---3----|
G|-2-------2-2-------2-2-------2-2-------2--|
D|------------------------------------------|
A|------------------------------------------|
E|------------------------------------------|

Parte 2 de 3
E|-----0-0--0-0-1-1-1/3-3-0-----------------|
B|---1---1--1-1-3-3-3/5-5-------------------|
G|-0----------------------------------------|
D|------------------------------------------|
A|------------------------------------------|
E|------------------------------------------|

Parte 3 de 3
E|-----0----------0-------------------------|
B|---1---1------1---1-----------------------|
G|-0-------0--0-------0---------------------|
D|------------------------------------------|
A|------------------------------------------|
E|------------------------------------------|

F9               Dm             F9
    Conhecer as manhas e as manhãs
             Dm             C
O sabor das massas e das maçãs
F9                Dm               F9
    É preciso o amor pra poder pulsar
           Dm               F9
É preciso paz pra poder sorrir
              C
É preciso a chuva para florir

Parte 1 de 3
E|-0-1-3-7--7---------7---------------------|
B|-1-3-5-8----8-----8---8-------------------|
G|--------------7-7-------7-----------------|
D|------------------------------------------|
A|------------------------------------------|
E|------------------------------------------|

E|-----5----------5-------------------------|
B|---6---6------6---6-----------------------|
G|-5-------5--5-------5---------------------|
D|------------------------------------------|
A|------------------------------------------|
E|------------------------------------------|

Parte 2 de 3
E|-----0-0-0--------------------------------|
B|---1---1-1--------------------------------|
G|-0----------------------------------------|
D|------------------------------------------|
A|------------------------------------------|
E|------------------------------------------|

Parte 3 de 3
E|-----0-0--1-1/3-3-3-3-----3---------3-----|
B|---1---1--3-3/5-5-5-5---3---3-----3---3---|
G|-0--------------------4-------5-5-------5-|
D|------------------------------------------|
A|------------------------------------------|
E|------------------------------------------|

G                                F9
   Ando devagar porque já tive pressa

E levo esse sorriso
            C
Porque já chorei demais
G                          
   Hoje me sinto mais forte
                 F9
Mais feliz quem sabe

Eu só levo a certeza
              C
De que muito pouco eu sei
    G
Eu nada sei

[Passagem Final]

                G
E|--------------3---------------------------|
B|--------------3---------------------------|
G|---0---0---0--0---------------------------|
D|--------------0---------------------------|
A|-3---2---0----2---------------------------|
E|--------------3---------------------------|
00:00 / 00:00
Outros vídeos desta música
Repetir
Outros vídeos desta música
4.193.854 exibições
  • Simplificar cifra
    • ½ Tom
    • A
    • Bb
    • B
    • C
    • Db
    • D
    • Eb
    • E
    • F
    • F#
    • G
    • Ab
  • Adicionar à lista

Afinação da cifra

Afinador online

    0 comentários

    Ver todos os comentários

    Entre para o Cifra Club PRO

    Tenha acesso a benefícios exclusivos no App e no Site

    • Chega de anúncios

    • Mais recursos no app do Afinador

    • Atendimento Prioritário

    • Aumente seu limite de lista

    • Ajude a produzir mais conteúdo

    00:00 / 00:00
    Capítulos
    • Início
    • Acordes da primeira parte
    • Tocando primeira parte
    • Ensinando ritmo padrão (violão base)
    • Acordes do refrão
    • Tocando refrão
    • Ensinando ritmo do refrão
    • Ensinando solo primeira parte (parte 1)
    • Ensinando solo primeira parte (parte 2)
    • Ensinando solo primeira parte (parte 3)
    • Ensinando solo primeira parte (tablatura)
    • Ensinando solo do refrão (parte 1)
    • Ensinando solo do refrão (parte 2)
    • Ensinando solo do refrão (parte 3)
    • Ensinando solo do refrão (tablatura)
    • Tocando trecho da música
    • Ensinando passagem final
    • Encerramento
    • Extras

    Cifra Club Pro

    Aproveite o Cifra Club com benefícios exclusivos e sem anúncios
    Cifra Club Pro
    Aproveite o Cifra Club com benefícios exclusivos e sem anúncios
    OK