Cifra Club

Aprenda

Aliança de Sangue

Anderson Freire

Cifra: Solo-intro (violão e guitarra)
tom: C
Intro: D F#m G D Em A Bm A D

E|---------5--9--10--9-------------------------|
B|----5-7---------------10-----------10--------|
G|--7-----------------------7-----7------9~11--|
D|-----------------------------9---------------|
A|---------------------------------------------|
E|---------------------------------------------|

E|---------------------------------------------|
B|------------------------------7--5-----------|
G|-----6--7--9--7--6---------------------------|
D|--9-----------------9--7--9------------------|
A|---------------------------------------------|
E|---------------------------------------------|

E|---------------------------------------------|
B|---------------------------------------------|
G|----7---6------------------------------------|
D|--7---7------0-------------------------------|
A|-------------7~9-----------------------------|
E|---------------------------------------------|

D         G             A     Bm        Em  A   D
Somos um, o Teu sangue fez assim.    ooooh! ooooh! 
            G             A     Bm           A
Teu amor é bem maior que tudo em mim.    Oooooh! Oooh! 
D            F#m   G           A
Ao descer ao mundo sem a Sua Glória 
   D           F#m        A
Me abraçou tão forte o meu Jesus. 
   D            F#m      G           A
E ao voltar pro céu fez da nossa história 
Em      F#m            Em
Aliança com preço de cruz, 
G             A         D
Comunhão de graça e de luz. 

Refrão 1:
D    F#m    G
És o Rei da Glória 
     A           D   F#m    G
Teu Trono não Te separou de mim 
     A           Bm    F#m      G
Teu sangue eternizou nossa história 
  F#m     Em   A       D
Nossa aliança não tem fim 

C         F             G     Am        Dm  G   C
Somos um, o Teu sangue fez assim.    ooooh! ooooh! 
            F             G     Am           G
Teu amor é bem maior que tudo em mim.    Oooooh! Oooh! 
C            Em    F           G
Ao descer ao mundo sem a Sua Glória 
   C            Em         G
Me abraçou tão forte o meu Jesus. 
   C             Em      F          G
E ao voltar pro céu fez da nossa história 
Dm       Em            Dm
Aliança com preço de cruz, 
F             G         Am   C
Comunhão de graça e de luz. 

Refrão 2 (1 tom abaixo):
C     Em    F
És o Rei da Glória 
     G           C    Em    F
Teu Trono não Te separou de mim 
     G           Am     Em     F
Teu sangue eternizou nossa história 
  Em     Dm    G       C
Nossa aliança não tem fim 

Am     G     F     C
Nem a vida, nem a morte 
Am     G     F     C
Nos separam, somos um 
Am    G        F     C
Teu amor, pai, me consome 
    Dm       G
Sou Teu, Ès meu 

Repetição do Refrão 2                 
(Termina no Aliança com Dm  G )       2x

Depois da 2ª vez, o refrão junta com esse trecho:
     G           Am     Em     F
Teu sangue eternizou nossa história 
  Em     Dm    G       C
Nossa aliança não tem fim
Composição de Anderson Freire
Colaboração e revisão:
  • Nelson Francisco
  • Victor Alves
3.926 exibições
    • ½ Tom
    • A
    • Bb
    • B
    • C
    • Db
    • D
    • Eb
    • E
    • F
    • F#
    • G
    • Ab
  • Adicionar à lista

    0 comentários

    Ver todos os comentários
    00:00 / 00:00
    Outros vídeos desta música
    Repetir Qualidade Automático
    Outros vídeos desta música
    00:00 / 00:00
    Automático

    Cifra Club Pro

    Aproveite o Cifra Club com benefícios exclusivos e sem anúncios
    Cifra Club Pro
    Aproveite o Cifra Club com benefícios exclusivos e sem anúncios
    OK