Cifra Club

Aprenda

Medley (Dvd Essência)

Anderson Freire

Cifra: Principal (violão e guitarra)
Tom: C
[Intro]

E|------------------------------------------7--8------13--12-|
B|-----------------------------------9--10--------7/9--------|
G|------------------10--9---------9--------------------------|
D|------10--9----7---------7--10-----------------------------|
A|-7--8-------10---------------------------------------------|
E|-----------------------------------------------------------|


E|-----------------------------------------------------------|
B|---------15--13--12----------------------------------------|
G|---------------------14--13--14--13------------------------|
D|--12/14-----------------------------15--14-----------------|
A|-----------------------------------------------------------|
E|-----------------------------------------------------------|


E|-----------------------------------------------------------|
B|----------17---------15------------------------------------|
G|--------------------------------17-------------------------|
D|--14--14-----14--14-----14--14------14--14-----------------|
A|-----------------------------------------------------------|
E|-----------------------------------------------------------|


E|-----------------------------------------------------------|
B|-----------------------------------------------------------|
G|--16--17--16--14--13--14--13------13-----------------------|
D|------------------------------15------14-------------------|
A|-----------------------------------------------------------|
E|-----------------------------------------------------------|


E|-----------------------------------------------------------|
B|--------------13--12---------------------------------------|
G|------13--10----------12--9----2---------------------------|
D|--12---------------------------2---------------------------|
A|-----------------------------------------------------------|
E|-----------------------------------------------------------|


Am7
Queria tanto olhar pro céu
       G
Contemplar a grandeza do meu Deus
     Dm 7
Diferente da atitude de tomé
                                            E  F  E  F  E  E  F  E  F  E  D  C  B A
Quero ver porque eu creio, porque eu tenho fé
 Am7                      G
Queria tanto receber, a cura, o milagre eu quero ver
       Dm7
Gritarei o seu nome com muita fé
                                  E F E F E F  G  A  ABCBAGA
E ele me atenderá, me colocará de pé...

Am7 ( A B C B A )           F ( F F G A G F )      G ( G G A B A G A B A G)
Abra, abra os meus olhos, dá-me a visão
                   Dm7
Eu preciso ver, eu quero ver, aquele que faz o milagre
Am7 ( A B C B A)           F ( F F G A G F )      G ( G G A B A G A B A G )
Abra, abra os meus olhos, dá-me a visão
            Dm7
Eu preciso ver, eu quero ver

( A  B  C  D  E  G  A  B  C  D  E  G  A )

Am7                    F            C
Senhor  não vou dividir minha adoração
          G         Am7
Exclusivo é o meu coração
            F                   C         (2x)
Vivo só pra Ti  não abro mão do céu
                 G       E7        Am7
mesmo diante da morte prefiro ser fiel

( A  B  C  D  E  G  A  B  C  D  E  G  A ) D9

     D9                 A/C#
Senhor, quebra o meu orgulho
            Bm7        G
Eu quero descer e mergulhar
                   D9
Nas águas do teu amor
       A                  Bm
Me purifica! Eu quero ser limpo
      G         A      D9         ( A/C# )
Como Naamã, no teu poder

Bm7       G9             D9
Advogado fiel, Advogado fiel
                   A9
O meu Jesus é pra mim Advogado Fiel
  Bm7     G9             D9
Advogado Fiel, Advogado fiel
                  A9   D9
O meu Jesus é pra mim

G/B  A/C#             D9
Meu advogado é o meu Senhor
                        A9
Ele me defende do acusador
                              Em7
Minha causa entreguei em Suas mãos
             G9             D9
Posso descansar o meu coração
 D9
Minha audiência ele já marcou
                                    Bm7  A9
E garantiu de novo que eu serei um vencedor
                       Em7
Meu advogado mora lá no céu
            G9          A9    D9
Verdadeiro justo, pra sempre fiel

C#m                      A
O todo poderoso está aqui
                             E
Cristo ja esta passando aqui
                           G#  F#  G#3X  B
Rompe a multidão e toque nEle
             C#m
Virtude sairá
C#m                      A
O todo poderoso está aqui
                             E
Cristo ja esta passando aqui
                            G#m7
Rompe a multidão e toque nEle

   C#m              A        E                         B
  Eu quero estar além de tudo, eu não pertenço a este mundo
   C#m              A             G#               C#m7
  Eu vou guardar a minha fé, pra não perder minha coroa,
                     A       E               B       F#m7
  Preciso andar em santidade, pra ver a face do meu noivo
               G#m7     A              B      E
  E adorar na excelência o todo poderooooooso...

B7M                                        E7M
 Estou sentindo minhas forças indo embora
                                 D#7/9#  G#m7
Mas Tua presença me renova nessa hora
                      F#4  F#
 O  Senhor vem, e me leva além
B7M                               E7M
 O meu sonho de chegar está tão longe
                   D#7/9#         G#m7
Sou humano não consigo ser perfeito
                    E/F#     E7M
O Senhor vem, e me leva.... além

B                            F#/Bb
  Mestre eu preciso de um milagre
G#m7                 F#           E
  Transforma minha vida, o meu estado
B                                  D#7/9#  F# E D#
  Faz tempo que não vejo a luz do dia
                                 G#m7
Estão tentando sepultar minha alegria
                               E    B/D#
Tentando ver meus sonhos cancelados

 C#m7  G#/C          B             F#/Bb         A9
Lázaro ouviu a Sua voz, quando aquela pedra removeu
                           B      D#7/9#
Depois de quatro dias ele reviveu
  G#m7           F#/Bb    B       E
Mestre, não há outro que possa fazer
                     B/D#           A9
Aquilo que só o Teu nome tem todo poder
                          E/F#
Eu preciso tanto de um milagre

              B
Remove minha pedra
               B7M
Me chama pelo nome
               G#m7
Muda minha história
                    E/G#
Ressuscita os meus sonhos
                 B/D#  E
Transforma minha vida
             F#
Me faz um milagre
               A
Me toca nessa hora
               E/G#
Me chama para fora
 F#         B   B  Bb  G#  Bb
Ressuscita-me

    B
Tu és a própria vida
  F#/Bb
A força que há em mim
     G#m7
Tu és o filho de Deus
       E
Que me ergue pra vencer
 B/D#        ( D#  C#  B  Bb  B  Bb )
Senhor de tudo em mim
   F#/Bb
Já ouço a Tua voz
     G#m7
Me chamando pra viver
        E
Uma história de poder!

              C#
Remove minha pedra
               C#7M
Me chama pelo nome
               B/C#
Muda minha história
                    F#/C#
Ressuscita os meus sonhos
              ( G#  F#  F )  C#/F
Transforma minha vida
F#          G#
Me faz um milagre
               B
Me toca nessa hora
               F#/Bb
Me chama para fora
 G#        C#
Ressuscita-me

[Final] C#  F#m6/C#  C#9
Composição de Anderson Freire
Colaboração e revisão:
90.900 exibições
    • ½ Tom
    • A
    • Bb
    • B
    • C
    • Db
    • D
    • Eb
    • E
    • F
    • F#
    • G
    • Ab
  • Adicionar à lista

    0 comentários

    Mostrar mais comentários
    00:00 / 00:00
    outros vídeos desta música
    repetir qualidade Automático
    Outros vídeos desta música
    00:00 / 00:00
    Automático

    Cifra Club Pro

    Aproveite o Cifra Club com benefícios exclusivos e sem anúncios
    Cifra Club Pro
    Aproveite o Cifra Club com benefícios exclusivos e sem anúncios
    OK