Cifra Club

Adios Que Te Vaya Bien

Aterciopelados

Cifra: Principal (violão e guitarra)
Selo Cifra Club: esta cifra foi revisada para atender aos critérios oficiais da nossa Equipe de Qualidade.
tom: A
VERSO: Esto va en 3 tiempos 

                      A                E                                 
G|--||----------------|----------------|----------------|----------------| 
D|--||----------------|----------------|----------------|----------------| 
A|--||----------------|----------------|------2---------|----------------| 
E|--||-------0--2--4--|5------5--4--2--|0---------------|0------0--2--4--| 

     A                                 E 
G|--||----------------|----------------|----------------|----------------| 
D|--||----------------|----------------|----------------|----------------| 
A|--||----------------|----------------|------2---------|----------------| 
E|--||5-----0---------|5------5--4--2--|0---------------|0------0--2--4--| 

     A                D                A                E 
G|--||----------------|----------------|----------------|----------------| 
D|--||----------------|----------------|----------------|----------------| 
A|--||-------0--2--4--|5------5--4--2--|----------------|----------------| 
E|--||5---------------|----------------|5------5--4--2--|0------0--2--4--| 

     A                D                A                E  
G|--||----------------|----------------|----------------|----------------| 
D|--||----------------|----------------|----------------|----------------| 
A|--||-------0--2--4--|5------5--4--2--|----------------|----------------| 
E|--||5---------------|----------------|5------5--4--2--|0------0--2--4--| 

     A 
G|--||----------------| 
D|--||----------------|     El Coro es en 4 Tiempos 
A|--||-------0--2--4--| 
E|--||5---------------| 

                CORO: 
     D 
G|--||----------------|----------------|----------------|----------------| 
D|--||----------------|----------------|----------------|----------------| 
A|--||5---5---5-5-5---|5---5---5-5-5---|5---5---5-5-5---|5---5---5-5-5---| 
E|--||----------------|----------------|----------------|----------------| 

     A 
G|--||----------------|----------------|----------------|----------------| 
D|--||----------------|----------------|----------------|----------------| 
A|--||----------------|----------------|----------------|----------------| 
E|--||5---5---5-5-5---|5---5---5-5-5---|5---5---5-5-5---|5---5---5-5-5---| 

     E 
G|--||----------------|----------------|----------------|----------------| 
D|--||----------------|----------------|----------------|----------------| 
A|--||----------------|----------------|----------------|----------------| 
E|--||0---0---0-0-0---|0---0---0-0-0---|0---0---0-0-0---|0---0---0-0-0---| 

     A 
G|--||----------------|----------------| 
D|--||----------------|----------------| Repite el Coro, y vuelve a verso 
A|--||----------------|----------------| 
E|--||5---5---5-5-5---|5---5---5-5-5---|
00:00 / 00:00
Outros vídeos desta música
Repetir
Outros vídeos desta música
984 exibições
    • ½ Tom
    • A
    • Bb
    • B
    • C
    • Db
    • D
    • Eb
    • E
    • F
    • F#
    • G
    • Ab
  • Adicionar à lista

Afinação da cifra

Afinador online

    0 comentários

    Ver todos os comentários

    Conseguiu tocar?

    0 Tocaram 0 Ainda não

    Grave um vídeo tocando Adios Que Te Vaya Bien e nos envie!

    Toque também

    1. Imagem do artista Fito Páez 11 y 6 Fito Páez
    2. Imagem do artista Los Fabulosos Cadillacs Vasos Vacíos Los Fabulosos Cadillacs
    3. Imagem do artista Caifanes Afuera Caifanes
    4. Imagem do artista Ekhymosis Solo Ekhymosis

    Entre para o Cifra Club PRO

    Tenha acesso a benefícios exclusivos no App e no Site

    • Chega de anúncios

    • Mais recursos no app do Afinador

    • Atendimento Prioritário

    • Aumente seu limite de lista

    • Ajude a produzir mais conteúdo

    00:00 / 00:00

    Cifra Club Pro

    Aproveite o Cifra Club com benefícios exclusivos e sem anúncios
    Cifra Club Pro
    Aproveite o Cifra Club com benefícios exclusivos e sem anúncios
    OK