Cifra Club

Buena Estrella

Aterciopelados

Cifra: Principal (violão e guitarra)
Selo Cifra Club: esta cifra foi revisada para atender aos critérios oficiais da nossa Equipe de Qualidade.
tom: C
(riff 1)
   Bm               G                   A         (Em)
E |-----0----2-0---------------0-----------------------
B |---3---3------3--------3------3--------5------------
G |--4-----4------------4---4------4-----6-------------
D |--------------------5-----5----------7---------2----  (2x)
A |----------------------------------------------2-----
E |---------------------------------------------0------

  (riff 2)      Bm               G                   A
E |-----0----2-0---------------0----------------0/12-----
B |---3---3------3--------3------3--------5-----0/12-----
G |--4-----4------------4---4------4-----6---------------
D |--------------------5-----5----------7----------------
A |------------------------------------------------------
E |------------------------------------------------------

Bm                      G
La conjunción de los planetas
A                   Em
Mi paz quiere perturbar

(riff 2)

Em             Bm
Pero me siento protegida
G             A
Tengo mi talismán
Em            Bm
Seguro tendré larga vida
G             A
Trébol superestar

Bm           G
Una mariposa negra
A                  Em
Mi casa viene a rondar
Em              Bm
Me aplican la mirada china
G                A
Me quieren desgraciar
Em            Bm
Pero yo tengo mi vacuna
G              A
Contra el todo mal

Dm                 Am
Tengo un a buena estrella
C            G
que destella que me guía
Dm              Am
brilla y me maravilla
C             G
un buen àngel me arrastra el ala
Dm           Am
y no me desampara
C          G
y me cuida desde arriba

Bm                G
No me quitarán lo mio
A            Em
nunca me salarán
Em                Bm
los que me tienen ojeriza
G             A
conmigo no podrán
Em                 Bm
las tres potencias magnetizan
G                A
mi suerte aumentará
00:00 / 00:00
Outros vídeos desta música
Repetir
Outros vídeos desta música
813 exibições
    • ½ Tom
    • A
    • Bb
    • B
    • C
    • Db
    • D
    • Eb
    • E
    • F
    • F#
    • G
    • Ab
  • Adicionar à lista

Afinação da cifra

Afinador online

    0 comentários

    Ver todos os comentários

    Conseguiu tocar?

    0 Tocaram 0 Ainda não

    Grave um vídeo tocando Buena Estrella e nos envie!

    Toque também

    1. Imagem do artista Fito Páez 11 y 6 Fito Páez
    2. Imagem do artista Los Fabulosos Cadillacs Vasos Vacíos Los Fabulosos Cadillacs
    3. Imagem do artista Caifanes Afuera Caifanes
    4. Imagem do artista Ekhymosis Solo Ekhymosis

    Entre para o Cifra Club PRO

    Tenha acesso a benefícios exclusivos no App e no Site

    • Chega de anúncios

    • Mais recursos no app do Afinador

    • Atendimento Prioritário

    • Aumente seu limite de lista

    • Ajude a produzir mais conteúdo

    00:00 / 00:00

    Cifra Club Pro

    Aproveite o Cifra Club com benefícios exclusivos e sem anúncios
    Cifra Club Pro
    Aproveite o Cifra Club com benefícios exclusivos e sem anúncios
    OK