Cifra Club

Cosita seria

Aterciopelados

Cifra: Principal (violão e guitarra)
Selo Cifra Club: esta cifra foi revisada para atender aos critérios oficiais da nossa Equipe de Qualidade.
tom: Dm
E|-----------------------|
B|-----------------------|
G|-----------------------|
D|-----------------------| x6
A|-----0---0-----3-3--3-0|
E|-1-1-------3-3---------|



Un fulano me gritaba
si fuera elado me la chupaba
otro dijo yo soy perro
pues tus huesos voy entierro

E|-------------------------|
B|-------------------------|
G|---------4---4-----------|
D|---3h4h5---5---5---------| x2 fig.1
A|-------------------------|
E|-------------------------|

E|--------------------------------------------|
B|--------------------------------------------|
G|--------------------------------------------|
D|-----3-3----3-3----5-5----5---5------------| fig. 2
A|-----3-3----3-3----5-5----5---5------------|
E|--0--1-1--0-1-1--0-3-3--0-3---3------------|


fig.2
El muy bestia no respeta
yo me voltie y le di en la geta
y es que soy cosita seria
y es que soy cosita seria


   C  M       A  # M
E|--8------|---6----------|
B|--8------|---6----------|
G|--9------|---7----------|
D|--10-----|---8----------| fig.3
A|--10-----|---8----------|
E|--8------|---6----------|


fig.3
No tengo pelos en la lengua
ya supere el que diran
no tengo pelos en la lengua
ya supere el que diran


E|------------------|----------------------------------|
B|------------------|----------------------------------|
G|------------------|----------------------------------|
D|--3-3-3--3-3-3----|---6-7-7--6-7-7--6-5-5------------| fig.4
A|--3-3-3--3-3-3----|---6-7-7--6-7-7--6-5-5------------|
E|--1-1-1--1-1-1----|---4-5-5--4-5-5--4-3-3------------|


fig.4
cosita, cosita, cosita, seria
cosita, cosita, cosita, seria
cosita, cosita, cosita, seria
cosita, cosita, cosita, seria

*solo del bajo y bateria

despues del solo tocar:
fig.1

fig.2
En el periodico salio
que al man esto le sucedio
por hechar piropos sucios
le cortaron el capullo

y aunque un poco exagerado
yo pienso se lo habia buscado
y esque soy cosita seria
y esque soy cosita seria


fig.3
no tengo pelos en la lengua
ya supere el que diran
no tengo pelos en la lengua
ya supere el que diran


fig.4
cosita, cosita, cosita, seria
cosita, cosita, cosita, seria
cosita, cosita, cosita, seria
cosita, cosita, cosita, seria

*solo bateria

E|--------------------------------------------------------------------|
B|--------------------------------------------------------------------|
G|--------6---6----------6---6-------------5---5----------5---5-------|
D|--5h6h7---7---7--5h6h7---7---7-----4h5h6---6---6--4h5h6---6---6-----| fig.5
A|--------------------------------------------------------------------|
E|--------------------------------------------------------------------|



fig.5
y cosita, cosita, cosita, seria
cosita, cosita, cosita, seria
cosita, cosita, cosita, seria
cosita, cosita, cosita, seria

cosita, cosita, cosita, seria
cosita, cosita, cosita, seria
cosita, cosita, cosita, seria
cosita, cosita, cosita, seria
00:00 / 00:00
Outros vídeos desta música
Repetir
Outros vídeos desta música
261 exibições
    • ½ Tom
    • Am
    • Bbm
    • Bm
    • Cm
    • C#m
    • Dm
    • Ebm
    • Em
    • Fm
    • F#m
    • Gm
    • G#m
  • Adicionar à lista

Afinação da cifra

Afinador online

    0 comentários

    Ver todos os comentários

    Conseguiu tocar?

    0 Tocaram 0 Ainda não

    Grave um vídeo tocando Cosita seria e nos envie!

    Toque também

    1. Imagem do artista Fito Páez 11 y 6 Fito Páez
    2. Imagem do artista Los Fabulosos Cadillacs Vasos Vacíos Los Fabulosos Cadillacs
    3. Imagem do artista Caifanes Afuera Caifanes
    4. Imagem do artista Ekhymosis Solo Ekhymosis

    Entre para o Cifra Club PRO

    Tenha acesso a benefícios exclusivos no App e no Site

    • Chega de anúncios

    • Mais recursos no app do Afinador

    • Atendimento Prioritário

    • Aumente seu limite de lista

    • Ajude a produzir mais conteúdo

    00:00 / 00:00

    Cifra Club Pro

    Aproveite o Cifra Club com benefícios exclusivos e sem anúncios
    Cifra Club Pro
    Aproveite o Cifra Club com benefícios exclusivos e sem anúncios
    OK