Cifra Club

Aprenda

La Estaca

Aterciopelados

Cifra: Principal (violão e guitarra)
tom: A
Estrofa 
        A          B           A 
G|---------------------------------------- 
D|---------------------------------------- 
A|-------0--0-------2-----------0---0-0--- 
E|-0-2-4------4-2-0---0---0-2-4---0------- 

        E           A 
G|--------------------- 
D|--------------------- 
A|-------2-----------0- 
E|-4-2-0---0---0-2-4--- 

        D        A        E        A 
G|------------------------------------------- 
D|-------0--0-------------------------------- 
A|-0-2-4------4-2-0--0--------------0-------- 
E|---------------------4-2-0--0-2-4---------- 

        D        A        E        A 
G|------------------------------------------- 
D|-------0--0-------------------------------- 
A|-0-2-4------4-2-0--0--------------0--0-2-4- 
E|---------------------4-2-0--0-2-4---------- 

Estribillo 
  D 
G|--------------------------------- 
D|-0-0-0-0-0-0-0-0-0-0-0-0-0-0-0-0- 
A|--------------------------------- 
E|--------------------------------- 

  A 
G|--------------------------------- 
D|--------------------------------- 
A-0-0-0-0-0-0-0-0-0-0-0-0-0-0-0-0- 
E|--------------------------------- 

  E 
G|--------------------------------- 
D|--------------------------------- 
A|--------------------------------- 
e|-0-0-0-0-0-0-0-0-0-0-0-0-0-0-0-0- 

  A               D 
G|--------------------------------- 
D|-----------------0-0-0-0-0-0-0-0- 
A|-0-0-0-0-0-0-0-0----------------- 
E|--------------------------------- 

(Estrofa x1) 
(Estribillo x1) 

Última Estrofa 
        D        A        E        A 
G|-------------------------------------- 
D|-------0--0--------------------------- 
A|-0-2-4------4-2-0--0--------------0--- 
E|---------------------4-2-0--0-2-4----- 

        D        A        E           A 
G|---------------------------------------------- 
D|-------0--0----------------------------------- 
A|-0-2-4------4-2-0--0-----------------0-0---0-- 
E|---------------------4-2-0-----0-2-4-----0----
Composição de Andrea Echeverri
Colaboração e revisão:
  • Rafael Tebet
734 exibições
    • ½ Tom
    • A
    • Bb
    • B
    • C
    • Db
    • D
    • Eb
    • E
    • F
    • F#
    • G
    • Ab
  • Adicionar à lista

    0 comentários

    Ver todos os comentários

    Conseguiu tocar?

    0 Tocaram 0 Ainda não

    Grave um vídeo tocando La Estaca e nos envie!

    00:00 / 00:00
    Outros vídeos desta música
    Repetir Qualidade Automático
    Outros vídeos desta música
    00:00 / 00:00
    Automático

    Cifra Club Pro

    Aproveite o Cifra Club com benefícios exclusivos e sem anúncios
    Cifra Club Pro
    Aproveite o Cifra Club com benefícios exclusivos e sem anúncios
    OK