Cifra Club

The Seven Angels

Avantasia

Cifra: Principal (violão e guitarra)
tom: A
Afinação:
1= D#
2= A#
3= F#
4= C#
5= G#
6= C#

 D#|------------------------|------------------------------
 A#|------------------------|------------------------------
 F#------------------------|------------------------------
 C#--2-2-2--3-3--5-5---7-7-|-2-2-2--3-3--5-5--------------
 G#|--0-0-0--1-1--3-3---5-5-|-0-0-0--1-1--3-3--------------
 C#------------------------|------------------------------
   [GABRIEL]
 D#|---5---|---6---|---5---|---6---|------------------
 A#|---6---|---6---|---6---|---6---|------------------
 F#-------|-------|-------|-------|------------------
 C#-------|-------|-------|-------|--7-7-7-7-7-7-7-7-
 G#|-------|-------|-------|-------|--5-5-5-5-5-5-5-5-
 C#-------|-------|-------|-------|------------------

 D#|------------------|---------------------------------
 A#|------------------|---------------------------------
 F#------------------|---------------------------------
 C#--7-7-7-7-7-7-7-7-|-------------------10------------
 G#|--5-5-5-5-5-5-5-5-|--7-7-7-7-7-7-7--9-10------------
 C#------------------|--7-7-7-7-7-7-7--9-10------------

 D#|---5---|---6---|---5---|---6---|------------------
 A#|---6---|---6---|---6---|---6---|------------------
 F#-------|-------|-------|-------|------------------
 C#-------|-------|-------|-------|--7-7-7-7-7-7-7-7-
 G#|-------|-------|-------|-------|--5-5-5-5-5-5-5-5-
 C#-------|-------|-------|-------|------------------

 D#|------------------|---------------------------------
 A#|------------------|---------------------------------
 F#------------------|---------------------------------
 C#--7-7-7-7-7-7-7-7-|-------------------10------------
 G#|--5-5-5-5-5-5-5-5-|--7-7-7-7-7-7-7--9-10------------
 C#------------------|--7-7-7-7-7-7-7--9-10------------
                   [POPE]
 D#|-------|-------|---------|----------------------------
 A#|-------|-------|---------|----------------------------
 F#-------|---2---|----2----|-----------------2----------
 C#-------|---0---|----2----|---------------5-2----------
 G#|---12--|-------|----0----|---------------5-0----------
 C#---12--|-------|---------|---------------5------------
   [LUGAID]
 D#|---------|-----------|--------------------------------
 A#|---------|-----------|--------------------------------
 F#---------|-----------|-----2--------------------2--5--
 C#---5-----|------5----|-----2--------------------2--5--
 G#|---5-----|------5----|-----0--------------------0--3--
 C#---5-----|------5----|--------------------------------
   [BISHOP]
 D#|--------|-----------------|--------------------------
 A#|--------|-----------------|--------------------------
 F#-2------|----------2------|--------------------------
 C#-2------|-------5--2------|--------------------------
 G#-0------|-------5--0------|--------------------------
 C#--------|-------5---------|--------------------------
   [LUGAID]
 D#|--------|-------------|-------------------------------
 A#|--------|-------------|-------------------------------
 F#--------|-------------|-----2-------------------------
 C#---5----|-------5-----|-----2-------------------------
 G#|---5----|-------5-----|-----0-------------------------
 C#---5----|-------5-----|-------------------------------
   [GABRIEL]
 D#|-------------|------------|-------------|-----------------
 A#|-------------|------------|-------------|-----------------
 F#---7-7----2--|---7-7----2-|----------5--|---------5-------
 C#---7-7----2--|---7-7----2-|---3------5--|---3-----5-------
 G#|---5-5----0--|---5-5----0-|---3------3--|---3-----3-------
 C#-------------|------------|---3---------|---3-------------

 D#|----------|----------|---------------------------------
 A#|----------|----------|---------------------------------
 F#---7---9--|-------3--|---2--------3---5----------------
 C#---7---9--|---3---3--|---2--------3---5----------------
 G#|---5---5--|---3---1--|---0--------1---3----------------
 C#----------|---3------|---------------------------------
   [REFRÃO]
 D#|-----------|--------------------------|--------------------------
 A#|-----------|--------------------------|--------------------------
 F#---------2-|----5------7---3-------5--|--7--2----5---3--5-----5--
 C#---3-----2-|----5------7---3---3---5--|--7--2----5---3--5--3--5--
 G#|---3-----0-|----3------5---1---3---3--|--5--0----3---1--3--3--3--
 C#---3-------|-------------------3------|--------------------3-----

 D#|-----------|--------------------------|------------------------------
 A#|-----------|--------------------------|------------------------------
 F#---------2-|----5------7---3-------5--|--7--2----5---3--5-----5------
 C#---3-----2-|----5------7---3---3---5--|--7--2----5---3--5--3--5--3---
 G#|---3-----0-|----3------5---1---3---3--|--5--0----3---1--3--3--3--3---
 C#---3-------|-------------------3------|--------------------3-----3---
            [POPE]                 [LUGAID]
 D#|-------|----------------------|--------------------------------
 A#|-------|----------------------|--------------------------------
 F#-------|--2-----------------2-|-----------------------2--------
 C#--3--5-|--2--------------5--2-|------5-----------5----2--------
 G#|--3--5-|--0--------------5--0-|------5-----------5----0--------
 C#--3--5-|-----------------5----|------5-----------5-------------
           [JAKOB]              [LUGAID]
 D#|-------|-------------------|-------------------------------
 A#|-------|-------------------|-------------------------------
 F#--2--5-|--2--------------2-|---------------------2---------
 C#--2--5-|--2-----------5--2-|----5----------5-----2---------
 G#|--0--3-|--0-----------5--0-|----5----------5-----0---------
 C#-------|--------------5----|----5----------5---------------
   [GABRIEL]
 D#|-----------------------|----------------|------------------
 A#|-----------------------|----------------|------------------
 F#---7-7---2-----7-7---2-|------5-------5-|--7--9-----3---2--
 C#---7-7---2-----7-7---2-|--3---5---3---5-|--7--9--3--3---2--
 G#|---5-5---0-----5-5---0-|--3---3---3---3-|--5--7--3--1---0--
 C#-----------------------|--3-------3-----|--------3---------
          [REFRÃO]
 D#|------|----------------------|-------------------------------------
 A#|------|----------------------|-------------------------------------
 F#-3--5-|------2---5-----7---3-|-------5----7---2---5---3---5--------
 C#-3--5-|--3---2---5-----7---3-|---3---5----7---2---5---3---5--------
 G#-1--3-|--3---0---3-----5---1-|---3---3----5---0---3---1---3--------
 C#------|--3-------------------|---3---------------------------------

 D#|---------------------------------|-----------------------------------
 A#|---------------------------------|-----------------------------------
 F#-------5--------2----5-----7---3-|-------5----7---2---5----3--5------
 C#--3----5----3---2----5-----7---3-|---3---5----7---2---5----3--5---3----
 G#|--3----3----3---0----3-----5---1-|---3---3----5---0---3----1--3---3----
 C#--3---------3--------------------|---3----------------------------3----
        [SOLO HENJO RICHTER]
 D#|----|-------------------------------------|----------------------------------
 A#|----|-------------------------------------|----------------------------------
 F#----|-------------------------------------|----------------------------------
 C#----|---------7-----5-----4-----5-----4h5-|------7-----5-----4-----5-----4p2-
 G#|----|----0-0----0-0---0-0---0-0---0-0-----|--0-0---0-0---0-0---0-0---0-0-----
 C#--5-|-------------------------------------|----------------------------------

 D#|--------------------------------|-----------|13---15b17-12--13----15b17-13--13----13-15-15
 A#|--------------------------------|-----------|------------------13--------------13---------
 F#--------------------------------|2-0--------|---------------------------------------------
 C#----7-----5-----4-----5-----4h5-|----3-2-0--|---------------------------------------------
 G#0-0---0-0---0-0---0-0---0-0-----|----------3|---------------------------------------------
 C#--------------------------------|-----------|---------------------------------------------

 D#|-----------------------------------|----------------------------------
 A#|-----------------------------------|----------------------------------
 F#-----------------------------------|----------------------------------
 C#-------7-----5-----4-----5-----4h5-|------7-----5-----4-----5-----4p2-
 G#|--0-0----0-0---0-0---0-0---0-0-----|--0-0---0-0---0-0---0-0---0-0-----
 C#-----------------------------------|----------------------------------

 D#|--------------------------------|---------|-15-17-15-13-13-12-10--18-17-15-15-13-12-20-18
 A#|--------------------------------|---------|----------------------------------------------
 F#--------------------------------|2-0------|----------------------------------------------
 C#-----7-----5-----4-----5-----4h5|---3-2-0-|----------------------------------------------
 G#0-0----0-0---0-0---0-0---0-0----|---------|----------------------------------------------
 C#--------------------------------|--------3|----------------------------------------------

 D#-17-17--18-17---15--13--17--20b22--------
 A#|-----------------------------------------
 F#-----------------------------------------
 C#-----------------------------------------
 G#|-----------------------------------------
 C#-----------------------------------------
   [VOICE IN THE TOWER]  Tempo: 7:21
 D#|----------------------------|-------------------------|------------------------------
 A#|----------------------------|-------------------------|------------------------------
 F#---7------3------7----------|--7------3-----7---------|---7---3----7-----------------
 C#---7------3------7----3--1--|--7------3-----7----3--1-|---7---3----7----3--1---------
 G#|---5------1------5----3--1--|--5------1-----5----3--1-|---5---1----5----3--1---------
 C#----------------------3--1--|--------------------3--1-|-----------------3--1---------

 D#|------------------------------------------------------------------------------------------
 A#|------------------------------------------------------------------------------------------
 F#7---3-----7---------7---3-----------7---3---5---3-----7---3------------7---3---5---3------
 C#7---3-----7--3--1---7---3----3--1---7---3---5---3-----7---3-----3--1---7---3---5---3------
 G#5---1-----5--3--1---5---1----3--1---5---1---3---1-----5---1-----3--1---5---1---3---1------
 C#-------------3--1------------3--1-------------------------------3--1----------------------
   [Solo 2 Timo Tolkki]
 D#|---------------|------------------13-13---13b15------15-15-----17-17--17b18------15-17---
 A#|---------------|--------13-13-------------------13-13-----13-13-----13------16-18-----18-
 F#--7-------5--7-|---10-10-----10-10-----10------------------------------------------------
 C#--7-------5--7-|-------------------------------------------------------------------------
 G#|--5-------3--5-|-------------------------------------------------------------------------
 C#---------------|-------------------------------------------------------------------------

 D#-15-1718-151718-18b20-20-18b20-18--18--|--18--18-20-20b22-20-20---13--15--17--18--18b20-18
 A#|---------------------------------------|------------------------13--13--13--13--13--------
 F#---------------------------------------|--------------------------------------------------
 C#---------------------------------------|--------------------------------------------------
 G#|---------------------------------------|--------------------------------------------------
 C#---------------------------------------|--------------------------------------------------

 D#18-17-17-15-15--13-13---12-12---10-10-8-8-8------------------------------------------------
 A#|------------------------------------------------------------------13-13-15-16-15-13--13-15-
 F#-------------------------------------------------12-12-13-12-13-15-----------------15------
 C#--------------------------------------------13-15------------------------------------------
 G#|-------------------------------------------------------------------------------------------
 C#-------------------------------------------------------------------------------------------

D#13-15-16-15-13--13-15-15-16-15-13--18-16-15-----------------------13-1818-18b20-18-18-18-17
A#|--------------16---------------------------16-13-15-16-15-13-13-16-------------------------
F#-------------------------------------------------------------------------------------------
C#-------------------------------------------------------------------------------------------
G#|-------------------------------------------------------------------------------------------
C#-------------------------------------------------------------------------------------------

 D#15---17---15------------------------------------------------------------------------------
 A#|------------18--17-----17b19-15-----------------------------------------------------------
 F#------------------------------------------------------------------------------------------
 C#------------------------------------------------------------------------------------------
 G#|------------------------------------------------------------------------------------------
 C#------------------------------------------------------------------------------------------

 D#|----------|---------------------------------------------------|----------------------------
 A#|----------|---------------------------------------------------|----------------------------
 F#----------|----------------------7-------------2--------------|--3------------5------------
 C#---3------|------------8-7-5-3---7--7-7-7-7-7--2--2-2-2-2-2-2-|--3--3-3-3-3-3-5--5-5-5-5-5-
 G#|---3------|------3-5-3-----------5--5-5-5-5-5--0--0-0-0-0-0-0-|--1--1-1-1-1-1-3--3-3-3-3-3-
 C#---3------|---------------------------------------------------|----------------------------

D#|--------------------------------------------------------------------------------------------
 A#|-------------------------------------------------------------------------------------------
 F#----------------------------------------------7------------2-------------3-------------5---
 C#3------------------------------------8-7-5-3--7-7-7-7-7-7--2--2-2-2-2-2--3--3-3-3-3-3--5---
 G#3-3-3-3-3-3-3---3-3-3-3-3-3-3---3-5-3---------5-5-5-5-5-5--0--0-0-0-0-0--1--1-1-1-1-1--3---
 C#3-3-3-3-3-3-3---3-3-3-3-3-3-3--------------------------------------------------------------

 D#|---------------------------|--------------------------------------------------------------
 A#|---------------------------|--------------------------------------------------------------
 F#-----------3--5--3---------|------------3--5-----------------------3--5--3----------------
 C#5-5-5-5-5--3--5--3---3-3-3-|--3-3-3-3---3--5--5-5-5-5-5-5-5-5-5-5--3--5--3---3--3--3------
 G#3-3-3-3-3--1--3--1---3-3-3-|--3-3-3-3---1--3--3-3-3-3-3-3-3-3-3-3--1--3--1---3--3--3------
 C#---------------------3-3-3-|--3-3-3-3----------------------------------------3--3--3------

D#|--------------------------------------------------------------------------------------------    A#|--------------------------------------------------------------------------------------------    F#------------3--5------------------------------3---5-------3----------------2--3---5------5--   C#3--3--3--3--3--5--5-5-5-5-5-5-5-5-5-5-5-5-5-5-3---5---3---3------2--3---5------------3---5--      G#3--3--3--3--1--3--3-3-3-3-3-3-3-3-3-3-3-3-3-3-1---3---3---1---3-3-3---3---3--3--3--3--3--3-
C#3--3--3--3--------------------------------------------3-------------------------------------
 
 D#|-------------------------------------------------------------------------------------
 A#|-------------------------------------------------------------------------------------
 F#-----------------------5---5---5-----------------------------5--5---5----------------
 C#---5---5---5-3---3---3-5---5---5--1--3--5---5---5-3----3---3-5--5---5---0------------
 G#|---5---5---5-3---3---3-3---3---3--1--3--5---5---5-3----3---3-3--3---3---0------------
 C#---5---5---5-3---3---3------------1--3--5---5---5-3----3---3------------0------------
   [REGRIN] Tempo:11:45
 D#|----------------------------------------------------------
 A#|---------------------------------3------------------------
 F#--------------4---5--------2-----2------------------------
 C#---5---5--2---4---5---5----2-----0------------------------
 G#|---5---5--2---2---3---5----0------------------------------
 C#---5---4--2-----------5----------------------------------- 12x
Composição de Tobias Sammet
Colaboração e revisão:
  • Bruno Bianchi
3.941 exibições
    • ½ Tom
    • A
    • Bb
    • B
    • C
    • Db
    • D
    • Eb
    • E
    • F
    • F#
    • G
    • Ab
  • Adicionar à lista

    0 comentários

    Ver todos os comentários

    Conseguiu tocar?

    0 Tocaram 0 Ainda não

    Grave um vídeo tocando The Seven Angels e nos envie!

    00:00 / 00:00
    Outros vídeos desta música
    Repetir Qualidade Automático
    Outros vídeos desta música
    00:00 / 00:00
    Automático

    Cifra Club Pro

    Aproveite o Cifra Club com benefícios exclusivos e sem anúncios
    Cifra Club Pro
    Aproveite o Cifra Club com benefícios exclusivos e sem anúncios
    OK