Cifra Club

Chamo por Você

Banda Calypso

Cifra: Principal (violão e guitarra)
Selo Cifra Club: esta cifra foi revisada para atender aos critérios oficiais da nossa Equipe de Qualidade.
tom: D
[Intro] Bm  G  D  A 
        Bm  G  D  A
        Bm  G  D  A
        Bm  G  D  A 

( Bm  G  D  A )
( Bm  G  D  A )
( Bm  G  D  A )
( Bm  G  D  A )

[Solo]

E|----------------------------------------------------------------------------|
B|--12----------------------12-----------------15---12--------------------12--|
G|-----12-----14-11-14-11------12-----14-11-14---------12-----14-11-14-11-----|
D|--------12----------------------12----------------------12------------------|
A|----------------------------------------------------------------------------|
E|----------------------------------------------------------------------------|

Bm           G        D       A
Quando eu te vi pela primeira vez
  Bm         G         D      A
Você me pareceu ser um cara legal
Bm           G          D        A     Bm (Bm  G  D  A)
Quis me namorar mas em nada você me tocava
  Bm        G          D      A
A vida é um ponto de interrogação
   Bm        G        D        A
De onde apareceu essa louca paixão
    Bm          G        D       A         Bm
Que fez eu me ligar em você e não ver mais nada

               Bm    G
Agora eu não posso sair
       D           A
Que eu chamo por você
               Bm     G
À noite não dá pra dormir
       D           A  
Que eu chamo por você
                Bm    G
Um filme só pra distrair
       D           A
Que eu chamo por você
 G            A           Bm
Amor da minha vida vem me ver

[Solo]

E|---------------------------------------------------------------|
B|--12--15------------12--15--14--------12--15---------------12--|
G|----------11-------------------14-------------11--14-11-14-----|
D|--------------14-----------------------------------------------|
A|---------------------------------------------------------------|
E|---------------------------------------------------------------|

   Bm            G      D       A
No meu primeiro beijo você prometeu
    Bm        G      D     A
Que todo seu amor seria só meu
  Bm          G      D                A       Bm
E sempre me falou de coisas que eu deixava ao vento

( Bm  G  D  A )

    Bm           G    D        A 
Mas acho que fui boba e me dei mal
   Bm     G            D      A
Eu hoje estou num desespero total
   Bm         G        D          A    Bm
Oh Deus por favor me libere desse sofrimento!
Outros vídeos desta música
    73.954 exibições
      • ½ Tom
      • A
      • Bb
      • B
      • C
      • Db
      • D
      • Eb
      • E
      • F
      • F#
      • G
      • Ab
    • Adicionar à lista

    Afinação da cifra

    Afinador online

      0 comentários

      Ver todos os comentários

      Entre para o Cifra Club PRO

      Tenha acesso a benefícios exclusivos no App e no Site

      • Chega de anúncios

      • Badges exclusivas

      • Mais recursos no app do Afinador

      • Atendimento Prioritário

      • Aumente seu limite de lista

      • Ajude a produzir mais conteúdo

      Cifra Club Pro

      Aproveite o Cifra Club com benefícios exclusivos e sem anúncios
      Cifra Club Pro
      Aproveite o Cifra Club com benefícios exclusivos e sem anúncios
      Ops (: Contenido disponible sólo en portugués.
      OK