Cifra Club

Swallowed

Blind Melon

Cifra: Versão 2 (violão e guitarra)
Selo Cifra Club: esta cifra foi revisada para atender aos critérios oficiais da nossa Equipe de Qualidade.
tom: C
INTRO:

E|----------------------------------3------------3------------3------------3-|
B|-------------------------------2------------2------------2------------2----|
G|---------------------------0------------0------------0------------0--------|
D|--3---3---3---3---4---4----------------------------------------------------|
A|--3---3---3---3---4---4----------------------------------------------------|
E|--1---1---1---1---2---2----------------------------------------------------|


VERSE:
Riff:1
E|----------------------------------------------------------------------|
B|----------------------------------------------------------------------|
G|----------------------------------------------------------------------|
D|-----5----------------5---------------5-------------------------------|
A|----------6--5--6--------6--5--3--------6--5--5-----------------------|
E|---------------------------------------------------------1---2---3----|

       " Come       down from the ceiling
       Oh, these pills were made for feeling "

E|-----------------------------------------------------------------------|
B|-----------------------------------------------------------------------|
G|---------------------------5br---5br---5br---5br-----3----0------------|
D|--------------3-----5--------------------------------------------------|
A|-------/6--------------------------------------------------------------|
E|-----------------------------------------------------------------------|

        "Oh,                so                 divine "


Riff:2
E|---------------3------------3------------3-------|
B|---------2------------2------------2-------------|
G|----0------------0------------0------------------|
D|-------------------------------------------------|
A|-------------------------------------------------|
E|-------------------------------------------------|


NOTE: When you're playing the Chorus make sure that, after you've played the
last note (F), you go back to the beginning, BUT!!!! you play the second G.
So effectively, you would be playing

GGFGGFGGF (small riff) GFGGFGGF (small riff) GFGGFGGF ect ect. If you don't
you will get lost.

CHORUS:

E|--------------------------------------------------------------------------|
B|--------------------------------------------------------------------------|
G|--------------------------------------------------------------------------|
D|----5----5----3----5----5----3----5----5----3-----------------------------|
A|----5----5----3----5----5----3----5----5----3----------1-----1/3----------|
E|----3----3----1----3----3----1----3----3----1----3--------------------1---|

                                                  "I've got a lump in my
throat"


E|------------------------------------------|
B|------------------------------------------|
G|------------------------------------------|
D|---5--5--5--5--5--5--5--5--5--5-----------|
A|------------------------------------------|
E|------------------------------------------|


E|------------3------------3------------3--------------3-------------|
B|--------2------------2------------2--------------2-----------------|
G|---0------------0------------0--------------0----------------------|
D|-------------------------------------------------------------------|
A|-------------------------------------------------------------------|
E|-------------------------------------------------------------------|

The next bit is the best part of the song. It starts all heavy and anxious
and then it finishes all relaxed and cool, enjoy.

OUTRO:


E|------------------------------0------------------0-------------|
B|---------------------------------3-----3-----------3-----3-----|
G|------------------------------------0-----------------0--------|
D|---------------------------------------------------------------|
A|---------------3----3/5----------------------------------------|
E|----3----5-----------------------------------------------------|


E|----------------------------------0---------------|
B|-----------------------------1h3------3--------1--|
G|-----------------------------------------------0--|
D|---0h2p0---------------------------------------2--|
A|------------3----0----3------------------------3--|
E|--------------------------------------------------|

That is all. Any changes or corrections are more than welcome and if anybody
has the tabs for any of the Blind Melon songs mentioned above...please
e-mail me at
Outros vídeos desta música
    3 exibições
      • ½ Tom
      • A
      • Bb
      • B
      • C
      • Db
      • D
      • Eb
      • E
      • F
      • F#
      • G
      • Ab
    • Adicionar à lista

    Afinação da cifra

    Afinador online

      0 comentários

      Ver todos os comentários

      Conseguiu tocar?

      0Tocaram0Ainda não

      Grave um vídeo tocando Swallowed e nos envie!

      Toque também

      1. Imagem do artista Stone Temple PilotsPlush Stone Temple Pilots
      2. Imagem do artista Temple Of The DogHunger Strike Temple Of The Dog
      3. Imagem do artista Mad SeasonRiver Of Deceit Mad Season
      4. Imagem do artista Screaming TreesNearly Lost You Screaming Trees

      Entre para o Cifra Club PRO

      Tenha acesso a benefícios exclusivos no App e no Site

      • Chega de anúncios

      • Badges exclusivas

      • Mais recursos no app do Afinador

      • Atendimento Prioritário

      • Aumente seu limite de lista

      • Ajude a produzir mais conteúdo

      Cifra Club Pro

      Aproveite o Cifra Club com benefícios exclusivos e sem anúncios
      Cifra Club Pro
      Aproveite o Cifra Club com benefícios exclusivos e sem anúncios
      Ops (: Contenido disponible sólo en portugués.
      OK