Cifra Club

Aprenda

Advogado Fiel

Bruna Karla

Cifra: A (violão e guitarra)
Já pensou em usar uma coleção de roupas do Cifra Club? Responda as perguntas abaixo e nos ajude nessa missão! →
tom: D
 Solo Intro: C  Bm  A  E  C  Bm  D
E|--------------12-----------12------------12----12----------------
B|-----------9-----12------9----12-------9----12----12-------------
G|-----9.11----------9h11----------9h11-----------------9h11-11----
D|--11-------------------------------------------------------------
A|-----------------------------------------------------------------
E|-----------------------------------------------------------------

E|-----------12-----------12----------------------------------------
B|---------9----12------9----12------------10-----------------------
G|----9-11---------9h11---------9-11-12-13--------------------------
D|-11---------------------------------------------------------------
A|------------------------------------------------------------------
E|------------------------------------------------------------------


E               B                   F#m
Não vou me preocupar, com as perseguições,
                 A                      E
as pedras que me lançam, Jesus está por perto,
           B                   F#m    A              E
Eu posso confiar, eu posso descansar, Jesus está por perto.



C#m
Pra falar atire a primeira pedra
  A
Aquele que não tem pecado,  aquele que não erra

E
Pra me defender diante do inimigo,   
B                           F#m
Tomar minha dor, pra chorar comigo
                              A
Pra me sustentar debaixo de Tua destra,
                 E                       D
Isso é fato consumado, os meus casos impossíveis,
                C            D       E
Serão sempre encerrados pelo meu advogado


Refrão:

E
Meu advogado é o meu Senhor, 
                      B
Ele me defende do acusador
                            F#m
Minha causa entreguei em Suas mãos,
           A              E
Posso descansar o meu coração
E
Minha audiência ele já marcou
                                      B
E garantiu de novo que eu serei um vencedor
                      F#m
Meu advogado mora lá no céu, 
            A        B           (C#m  B  D  A  B)
Verdadeiro, justo, pra sempre fiel  



C#m       A              E
Advogado fiel, Advogado fiel, 
                 B
o meu Jesus é pra mim Advogado fiel
C#m       A           E
Advogado fiel, Advogado fiel,
                  B
O meu Jesus é pra mim
Composição de Anderson Freire
Colaboração e revisão:
  • welington gomes
10.107 exibições
    • ½ Tom
    • A
    • Bb
    • B
    • C
    • Db
    • D
    • Eb
    • E
    • F
    • F#
    • G
    • Ab
  • Adicionar à lista

    0 comentários

    Ver todos os comentários
    00:00 / 00:00
    Outros vídeos desta música
    Repetir Qualidade Automático
    Outros vídeos desta música
    00:00 / 00:00
    Automático

    Cifra Club Pro

    Aproveite o Cifra Club com benefícios exclusivos e sem anúncios
    Cifra Club Pro
    Aproveite o Cifra Club com benefícios exclusivos e sem anúncios
    OK