Enviar cifraEntrar

End Of Days

Bullet For My Valentine

Cifra: Principal
exibições 2.775
Tom: E
Tuning:drop c (cgcfad)
intro - 0:00

D|---------------------------------------------------------------------------|
A|---------------------------------------------------------------------------|
F|---------------------------------------------------------------------------|
C|---------------------------------------------------------------------------|
G|0-0-0000-------------------------------------------------------------------|
C|0-0-0000-------------------------------------------------------------------|

  * * ****
Pre verse - 0:01 repeat x2              x3

D|-------------------------------------|-------------------------------------|
A|-------------------------------------|-------------------------------------|
F|-------------------------------------|-------------------------------------|
C|0------------------------------------|-0--------14-12-10-0--------12-10-9--|
G|0-----17-----15-----13-----12---13---|-0---12------------0---12------------|
C|0-0-0----0-0----0-0----0-0----0----0-|-0-0----0----------0-0----0----------|

    * *    * *    * *    * *    *    *     *    *  *  *  *   *    *  *  * *
Verse (first time through guitars pan) - 0:20 x3

D|---------------------------------|x3---------------------------------------|
A|---------------------------------|-----------------------------------------|
F|---------------------------5---7-|-----------------------------------------|
C|-----5-7-5-------3-5-3-----5---7-|-------5-7-5--------12-10-9--------------|
G|-----------8-----------7---3---5-|-------------8--------------12---12-10-9-|
C|-0-0---------0-0---------0---0---|---0-0---------0-0-----------------------|

   * *         * *         *   *       * *         * *  *   * *  *    *  *  *
Chorus - 0:39

D|------------------|-------------------------------------x2-----------------|
A|------------------|--------------------------------------------------------|
F|--10----10--------|--------------------------------------------------------|
C|--8-----8--strum--|-0--------------------------------0---------------------|
G|--8-----8---------|-0-------10-------8-------7-------0---------------------|
C|--8-----8---------|-0-0-8-0----0-8-0---0-8-0---0-8-0-0---------------------|

                        * * *    * * *   * * *   * * *

D|------------------|-------------------------------------------------------------|
A|------------------|-------------------------------------------------------------|
F|-10----10---------|-------------------------------------------------------------|
C|-8------8--strum--|-0--------------------------------0-------------------------0|
G|-8------8---------|-0-------10-------8-------7-------0-------10-------0-0-0000-0|
C|-8------8---------|-0-0-8-0----0-8-0---0-8-0---0-8-0-0-0-8-0----0-8-0-0-0-0000-0|

                        * * *    * * *   * * *   * * *   * * *    * * * * * * 
Pre verse with run up - 0:58 x2

D|----------------------------------------------------------------------------------|
A|----------------------------------------------------------------------------------|
F|----------------------------------------------------------------------------------|
C|-0-----------------------------------0--------------------------------5-7-9-7-9-10|
G|-0-----17-----15-----13----12---13---0-----17-----15-----5-7-8-7-8-10-------------|
C|-0-0-0----0-0----0-0---0-0----0----0-0-0-0----0-0----0-0--------------------------|

     * *    * *    * *   * *    *    *   * *    * *    * *

D|---------------------------------------------------------------------------|
A|---------------------------------------------------------------------------|
F|---------------------------------------------------------------------------|
C|-0------------------------------------0--------14-12-10--0--------12-10-9--|
G|-0-----17-----15-----13-----12---13---0---12-------------0---12------------|
C|-0-0-0----0-0----0-0----0-0----0----0-0-0----0-----------0-0----0----------|

     * *    * *    * *    * *    *    *   *    *             *    *  * *  *  

Verse - 1:17 (not going to rewrite it refer to verse riff)
Chorus - 1:36
Pre Verse with run up -  1:55
Pre Solo - 2:14 (note this picking pattern is really hard) play whole thing 4x

D|---------------------------------------------------------------------------|
A|---------------------------------------------------------------------------|
F|-10-------10-------10-------10-------9----9--------------------------------|
C|----10-10----10-10----10-10----10-10---10---10---playthisx2----------------|
G|---------------------------------------------------------------------------|
C|---------------------------------------------------------------------------|

      *  *      *  *     *  *     *  *   *     *

D|---------------------------------------------------------------------------|
A|---------------------------------------------------------------------------|
F|-7-----7-----7-----7-----7---7---6-----6-----6-----///14~-12h14p12~--------|
C|---7-7---7-7---7-7---7-7---7---7---7-7---7-7---7-7-------------------------|
G|---------------------------------------------------------------------------|
C|---------------------------------------------------------------------------|

     * *   * *   * *   * *   *   *   * *   * *   * *
Guitar solo - 2:50
D|-17p15p13----------17p15p13----------17p15p13----------17p15p13------------|
A|----------17p15p13----------17p15p13----------17p15p13----------17p15p13---|
F|---------------------------------------------------------------------------|
C|---------------------------------------------------------------------------|
G|---------------------------------------------------------------------------|
C|---------------------------------------------------------------------------|
2:53
D|-15p13p12----------15p13p12----------15p13p12----------15p13p12------------|
A|----------15p13p12----------15p13p12----------15p13p12----------15p13p12---|
F|---------------------------------------------------------------------------|
C|---------------------------------------------------------------------------|
G|---------------------------------------------------------------------------|
C|---------------------------------------------------------------------------|
2:55
D|-15tremelopicking-15fullbendreleasewidevibrato---------------13-------13-15----13-15-17-13-15-17|
A|---------------------------------------------////13-13-15-17----15-17-------17------------------|
F|------------------------------------------------------------------------------------------------|
C|------------------------------------------------------------------------------------------------|
G|------------------------------------------------------------------------------------------------|
C|------------------------------------------------------------------------------------------------|
3:00
D|-------------17-------------------15halfstepbend---------------------------|
A|-15~15-18-15----18-15-13-13-17-13----------------17----repeatx2------------|
F|---------------------------------------------------------------------------|
C|---------------------------------------------------------------------------|
G|---------------------------------------------------------------------------|
C|---------------------------------------------------------------------------|
3:05
D|--------------------------------///17-15-13-////18-17-15-------------------|
A|-15~-----------------------------------------------------------------------|
F|--------------12-14-15-14-15-17--------------------------------------------|
C|-----12-14-15--------------------------------------------------------------|
G|---------------------------------------------------------------------------|
C|---------------------------------------------------------------------------|
        *  *  *  *  *  *  *  *  *
3:10
D|-------------17-------------------15halfstepbend---------------------------|
A|-15~15-18-15----18-15-13-13-17-13----------------17----repeatx2------------|
F|---------------------------------------------------------------------------|
C|---------------------------------------------------------------------------|
G|---------------------------------------------------------------------------|
C|---------------------------------------------------------------------------|
3:14
D|------------------------------------------------------------------------------------------|
A|------------------------------------------------------------------------------------------|
F|----------12-14-15----------14-15-17----------15-17-19----------17-19-20----------19-20-22|
C|-12-14-15----------14-15-17----------15-17-19----------17-19-20----------19-20-22---------|
G|------------------------------------------------------------------------------------------|
C|------------------------------------------------------------------------------------------|
all of these notes are palm muted
3:18
D|-/////18-17-10-13~~~~------------------------------------------------------|
A|---------------------------------------------------------------------------|
F|---------------------------------------------------------------------------|
C|---------------------------------------------------------------------------|
G|---------------------------------------------------------------------------|
C|---------------------------------------------------------------------------|
Verse riff x3 - 3:19
on fourth time play this

D|---------------------------------|
A|---------------------------------|
F|---------------------------------|
C|-----5-7-5-------3---------------|
G|-----------8---------------------|
C|-0-0---------0-0-----------------|

   * *         * *
Chorus riff x3 - 3:28
on the fourth time play this

D|------------------|----------------------------------|playthisx3
A|------------------|----------------------------------|
F|-10----10---------|----------------------------------|
C|-8------8--strum--|-0--------------------------------|
G|-8------8---------|-0-------10-------8-------7-------|
C|-8------8---------|-0-0-8-0----0-8-0---0-8-0---0-8-0-|

                        * * *    * * *   * * *   * * *
On the fourth time of this riff play opens like so

D|----------------------------------|
A|----------------------------------|
F|----------------------------------|
C|-0--------------------------------|
G|-0-------10-------8-------7-------|
C|-0-0-8-0----0-8-0---0-8-0---0-8-0-|

Introriff to end it

| /  slide up
| \  slide down
| h  hammer-on
| p  pull-off
| ~  vibrato
| +  harmonic
| x  Mute note
  • 1
  • 2
  • 3
  • 4
  • 5
  • 6
  • 7
  • 8
  • 9
  • 10
  • 11
  • 12
    Acordes para:
      Composição: Bullet for My Valentine / Matthew TuckColaboração e revisão:
      • Matheus

      0 comentários

        mostrar mais comentários

        Conseguiu tocar?

        0tocaram0ainda não

        Grave um vídeo tocando End Of Days e mande pra gente!

        00:00 / 00:00
        outros vídeos desta música
        repetirqualidadeautomática
        • automática
        Outro vídeos desta música
          00:00 / 00:00
          automática
          • automática
          Acordes para:violão e guitarra
          dificuldadeexibiçõescontribuições
          1 versão de Tab de baixoexibiçõescontribuições
          1 versão de Guitar Proformatodownloadscontribuição
          fecharplay/pause subir/descer velocidade
            acordes
            fechar
            OK
            Feedback