Cifra Club

Aprenda

Hino da Vitória

Cassiane

Cifra: Tab (violão e guitarra)
tom: Bb
E|--------------|--------------|--------------|--------------|--------------|
B|--------------|--------------|--------------|--------------|--------------|
G|--------------|--------------|--------------|--------------|--------------|
D|--------------|--------------|--------------|--------------|--------------|
A|--------------|--------------|--------------|--------------|--------------|
E|--------------|--------------|--------------|--------------|--------------|

E|--------------|------------------|----------------------|------------------|
B|--------------|------------------|-1-----1-----1--------|--1--3-1-1----3-3-|
G|--------------|--------------2-3-|---3-2---3-2------3-2-|------------------|
D|--------------|------------------|----------------------|------------------|
A|--------------|------------------|----------------------|------------------|
E|--------------|------------------|----------------------|------------------|

E|--------------------|-----------------0-|-1-0---1-0---1-0---1--|
B|-3-3-3-3-3-3-3----3-|-3----4-3-3----3---|-----3-----3-----3----|
G|--------------------|-------------------|----------------------|
D|--------------------|-------------------|----------------------|
A|--------------------|-------------------|----------------------|
E|--------------------|-------------------|----------------------|

E|------0----------0-|-1-0---1-0---1--1-1-1-5-3-|-5-3--0------------|
B|--------3-3----3---|-----3-----3--------------|--------3-1----1-1-|
G|-------------------|--------------------------|-------------------|
D|-------------------|--------------------------|-------------------|
A|-------------------|--------------------------|-------------------|
E|-------------------|--------------------------|-------------------|

E|------------------------|-------------------|---------------------|
B|-1-----1-----1------1-1-|------3---3----3-3-|-3-3-3-3-3-3-3-3-4-3-|
G|---3-2---3-2------------|-5------5---5------|---------------------|
D|------------------------|-------------------|---------------------|
A|------------------------|-------------------|---------------------|
E|------------------------|-------------------|---------------------|

E|-----------------0-|-1-0---1-0---3-1------0-|-1-0---1-0---1------0-|
B|---3-----------3---|-----3-----3--------3---|-----3-----3------3---|
G|-5----5-3----------|------------------------|----------------------|
D|-------------------|------------------------|----------------------|
A|-------------------|------------------------|----------------------|
E|-------------------|------------------------|----------------------|

E|-1-0---1-0---1--0---1-5---|-5--------6-6-6-5---|--------------|
B|-----3-----3------3-----8-|---8--------------8-|-8-6----------|
G|--------------------------|--------------------|--------------|
D|--------------------------|--------------------|--------------|
A|--------------------------|--------------------|--------------|
E|--------------------------|--------------------|--------------|

E|--5--5-5-5-----5-|--5--5-5-5-5-----6-|--6--6-6-6-8-8-6-|--6--6-6-6-8-8-5-|
B|-----------8-6---|-------------8-6---|-----------------|-----------------|
G|-----------------|-------------------|-----------------|-----------------|
D|-----------------|-------------------|-----------------|-----------------|
A|-----------------|-------------------|-----------------|-----------------|
E|-----------------|-------------------|-----------------|-----------------|

E|--5--5-5-5-----5-|--5--5-5-5-----6-|--6--6-6-6-8-8-6-|--6--6-6-6-8-8-5-|
B|-----------8-6---|-----------8-6---|-----------------|-----------------|
G|-----------------|-----------------|-----------------|-----------------|
D|-----------------|-----------------|-----------------|-----------------|
A|-----------------|-----------------|-----------------|-----------------|
E|-----------------|-----------------|-----------------|-----------------|

E|--5--5---------5---|---5-5-5-5-5-5-5-5-5-5-6-8-8-5-|
B|-------6-8-------8-|-6-----------------------------|
G|-------------------|-------------------------------|
D|-------------------|-------------------------------|
A|-------------------|-------------------------------|
E|-------------------|-------------------------------|

E|--5-5-5-5-5-5-5-5-5-5-----6-|--6-6-6-6-6-6-6-6-6-6-8-8-6-|
B|----------------------8-6---|----------------------------|
G|----------------------------|----------------------------|
D|----------------------------|----------------------------|
A|----------------------------|----------------------------|
E|----------------------------|----------------------------|

E|--6-6-6-6-6-6-6-6-8-8-8-8-5-|--5-5-5-5-5-5-5-5-5-5--6-8-5-|
B|----------------------------|-----------------------------|
G|----------------------------|-----------------------------|
D|----------------------------|-----------------------------|
A|----------------------------|-----------------------------|
E|----------------------------|-----------------------------|

E|--5-5-5-5-5-5-5-5-5-5------6-|--6-6-6-6-6-6-6-6-6-6-8-8-6-|
B|-----------------------8-6---|----------------------------|
G|-----------------------------|----------------------------|
D|-----------------------------|----------------------------|
A|-----------------------------|----------------------------|
E|-----------------------------|----------------------------|

E|--6-6-6-6-6-6-6-6-6-6-8-8-5-|--5---5-5--------5-|---5-5-5-5-----5-|
B|----------------------------|----------6-8-8----|-6---------8-6---|
G|----------------------------|-------------------|-----------------|
D|----------------------------|-------------------|-----------------|
A|----------------------------|-------------------|-----------------|
E|----------------------------|-------------------|-----------------|

E|--5--5-5-5-5-----6-|--6--6-6-6-8-8-6-|--6--6-6-6-8-8-5-|--5--5-5-5-----5-|
B|-------------8-6---|-----------------|-----------------|-----------8-6---|
G|-------------------|-----------------|-----------------|-----------------|
D|-------------------|-----------------|-----------------|-----------------|
A|-------------------|-----------------|-----------------|-----------------|
E|-------------------|-----------------|-----------------|-----------------|

E|--5--5-5-5-----6-|--6--6-6-6-8-8-6-|--6--6-6-6-8-8-5-|--5--5---------5---|
B|-----------8-6---|-----------------|-----------------|-------6-8-------8-|
G|-----------------|-----------------|-----------------|-------------------|
D|-----------------|-----------------|-----------------|-------------------|
A|-----------------|-----------------|-----------------|-------------------|
E|-----------------|-----------------|-----------------|-------------------|

E|---5-5-5-5-5-5-5-5-5-5-6-8-8-5-|--5-5-5-5-5-5-5-5-5-5-----6-|
B|-6-----------------------------|----------------------8-6---|
G|-------------------------------|----------------------------|
D|-------------------------------|----------------------------|
A|-------------------------------|----------------------------|
E|-------------------------------|----------------------------|

E|--6-6-6-6-6-6-6-6-6-6-8-8-6-|--6-6-6-6-6-6-6-6-8-8-8-8-5-|
B|----------------------------|----------------------------|
G|----------------------------|----------------------------|
D|----------------------------|----------------------------|
A|----------------------------|----------------------------|
E|----------------------------|----------------------------|

E|--5-5-5-5-5-5-5-5-5-5--6-8-5-|--5-5-5-5-5-5-5-5-5-5------6-|
B|-----------------------------|-----------------------8-6---|
G|-----------------------------|-----------------------------|
D|-----------------------------|-----------------------------|
A|-----------------------------|-----------------------------|
E|-----------------------------|-----------------------------|

E|--6-6-6-6-6-6-6-6-6-6-8-8-6-|--6-6-6-6-6-6-6-6-6-6-8-8-5-|--5---5-5--------5-|
B|----------------------------|----------------------------|----------6-8-8----|
G|----------------------------|----------------------------|-------------------|
D|----------------------------|----------------------------|-------------------|
A|----------------------------|----------------------------|-------------------|
E|----------------------------|----------------------------|-------------------|

E|--------------|------5-5-----------|-10-10--8--10-10--8-|-8-6----------|
B|-6------------|----------6-8-8--10-|--------------------|--------------|
G|--------------|--------------------|--------------------|--------------|
D|--------------|--------------------|--------------------|--------------|
A|--------------|--------------------|--------------------|--------------|
E|--------------|--------------------|--------------------|--------------|

E|-------------------|--------------|--------------|
B|------6-6-6-8-8-10-|--------------|--------------|
G|-------------------|-10-----------|--------------|
D|-------------------|--------------|--------------|
A|-------------------|--------------|--------------|
E|-------------------|--------------|--------------|

Composição de Rozeane Ribeiro
Colaboração e revisão:
  • Helon Oliveira
13.793 exibições
    • ½ Tom
    • A
    • Bb
    • B
    • C
    • Db
    • D
    • Eb
    • E
    • F
    • F#
    • G
    • Ab
  • Adicionar à lista

    0 comentários

    Ver todos os comentários
    00:00 / 00:00
    Outros vídeos desta música
    Repetir Qualidade Automático
    Outros vídeos desta música
    00:00 / 00:00
    Automático

    Cifra Club Pro

    Aproveite o Cifra Club com benefícios exclusivos e sem anúncios
    Cifra Club Pro
    Aproveite o Cifra Club com benefícios exclusivos e sem anúncios
    OK