Cifra Club

Brincar de Ser Feliz

Chitãozinho & Xororó

Cifra: Principal (violão e guitarra)
exibições 303.899
Tom: G
E|---------------------------------------------------------|
B|---------------------------------------------------------|
G|---------------------------------------------------------|
D|----2-4-5---5-5-5---4-5-5/7---7-7-7-5-4h5p4--------------|
A|--2------------------------------------------------------|
E|---------------------------------------------------------|

E|------------------------------------------------------------------------------------|
B|------------------------------------------------------------------------------------|
G|---------------4-5-7-5-4-5-4h5p4---4------------------------------------------------|
D|-------4-5-7---------------------7---7-5-7-5-4-5-4h5p4----4-------------------------|
A|--5-7---------------------------------------------------7----7-6--------------------|
E|------------------------------------------------------------------------------------|

E|---7-7-7----------------------7-7-7-7-7-----------------|
B|----------8----------7-8-10--------------10-7-----------|
G|-------------9-7-9----------------------------7---------|
D|--------------------------------------------------------|
A|--------------------------------------------------------|
E|--------------------------------------------------------|

E|---------------------------------------------------------------------------------------------------------------|
B|--------7-8-10-10-10-10-10-8-7-8-7---7-----------------------------------5-7-8-7h8p7---------------------------|
G|---7-9-----------------------------9----9-7-9-7-5-7-5-4-5-4h5p4---4-5-7--------------9-8-----------------------|
D|----------------------------------------------------------------7----------------------------------------------|
A|---------------------------------------------------------------------------------------------------------------|
E|---------------------------------------------------------------------------------------------------------------|

E|------------------|
B|-------4----------|
G|---4h5---5-4------|
D|------------------|
A|------------------|
E|------------------|

 Em
Tranquei a porta do meu peito
 D
Depois joguei a chave fora
C
E bem depressa eu mandei 
             B7
A solidão embora
Em
E nem dei o primeiro passo
 D
Já dei de cara com você 
 C
Me olhando com aquele jeito
             B7
Que só você tem quando quer me vencer
 Em
Dona das minhas vontades
 Bm
Com a chave da paixão
      E7
Tranqüilamente vai e volta
                Am
Entra e abre a porta do meu coração 
        B7
Já sabe o meu ponto fraco
     Em
Das minhas manhas e desejos
    F#7
Desliza sobre a minha pele
                B7
Põe na minha boca o mel dos seus beijos
               E
Como é que eu posso 
                                 F#m
Me livrar das garras desse amor gostoso 
               B7
O jeito é relaxar e começar 
         E    B7
Tudo de novo
               E
Como é que eu posso não querer
                   A
Se na verdade eu quero bis
             E
Rolar com você
         B7                  E
Nem que seja pra brincar de ser feliz
Acordes para:
    Colaboração e revisão:
    • antonio costa
    • Rodrigo Lopes

    0 comentários

      mostrar mais comentários

      Conseguiu tocar?

      14tocaram2ainda não

      Grave um vídeo tocando Brincar de Ser Feliz e mande pra gente!

      00:00 / 00:00
      outros vídeos desta música
      repetirqualidadeAutomático
      Outro vídeos desta música
        00:00 / 00:00
        OK