Cifra Club

Fogão de Lenha

Chitãozinho & Xororó

Cifra: Principal (violão e guitarra)
tom: C#m
[Intro] E  C#m  A  F#m  B7

E|----------------7/-9/7---------------|
B|---9--7--5--9---9/10/9---------------|
G|---9--8--6---------------------------|
D|------------9------------------------|
A|-------------------------------------|
E|-------------------------------------|

E|------------------5--7--9---7--5--9--|
B|---9--7--5--9-----7--9--10--9--7--10-|
G|---9--9--6---------------------------|
D|------------9------------------------|
A|-------------------------------------|
E|-------------------------------------|

E|---12-12--11/12/11-------------------|
B|---14-14--12/14/12-------------------|
G|-------------------------------------|
D|-------------------------------------|
A|-------------------------------------|
E|-------------------------------------|

   E           Ab            A
Espera, minha mãe, estou voltando
     C#7                  F#m
Que falta faz pra mim um beijo seu
     A            Ab     C#m
O orvalho das manhãs cobrindo as flores
    F#7                      B7
E um raio de luar que era tão meu

   E            Ab                A
O sonho de grandeza, oh mãe querida
    C#7              F#m
Um dia separou vocês e eu
    A         Ab         C#m
Queria tanto ser alguém na vida
  F#7                         B7
E apenas sou mais um que se perdeu

 B7       E            E7           A
Pegue a viola, e a sanfona que eu tocava
          F#m         B7            E    B7
Deixe um bule de café em cima do fogão
          E            E7        A
Fogão de lenha, e uma rede na varanda
        F#m           B7                    E      B7
Arrume tudo mãe querida  o seu filho vai voltar

[Solo] E  C#m  A  F#m  B7

 E              Ab         A
Mãe, eu lembro tanto a nossa casa
      C#7                        F#m
E as coisas que falou quando eu saí
 A             Ab       C#m
Lembro do meu pai, que ficou triste
   F#7                                B7
E nunca mais cantou depois que eu parti

 E          Ab             A
Hoje eu já sei, oh mãe querida
 C#7                        F#m
Nas lições da vida eu aprendi
       A           Ab       C#m
O que eu vim procurar aqui distante?
    F#7                         B7
Eu sempre tive tudo e tudo está aí

 B7       E            E7           A
Pegue a viola, e a sanfona que eu tocava
          F#m         B7            E    B7
Deixe um bule de café em cima do fogão
          E            E7        A
Fogão de lenha, e uma rede na varanda
        F#m            B7                    E      B7
Arrume tudo, mãe querida  o seu filho vai voltar          

   E          Ab             A
Espera, minha mãe, estou voltando
00:00 / 00:00
Outros vídeos desta música
Repetir
Outros vídeos desta música
Composição de Carlos Colla / Mauricio Duboc / Xororó
710.929 exibições
    • ½ Tom
    • Am
    • Bbm
    • Bm
    • Cm
    • C#m
    • Dm
    • Ebm
    • Em
    • Fm
    • F#m
    • Gm
    • G#m
  • Adicionar à lista

    0 comentários

    Ver todos os comentários

    Entre para oCifra Club PRO

    Tenha acesso a benefícios exclusivos no App e no Site

    • Chega de anúncios

    • Prioridade de compra em lançamentos

    • Mais recursos no app do Afinador

    • Atendimento Prioritário

    • Descontos nos produtos Cifra Club

    • Ajude a produzir mais conteúdo

    00:00 / 00:00

    Cifra Club Pro

    Aproveite o Cifra Club com benefícios exclusivos e sem anúncios
    Cifra Club Pro
    Aproveite o Cifra Club com benefícios exclusivos e sem anúncios
    OK