Cifra Club

Last Thing I Needed First Thing This Morning

Chris Stapleton

Cifra: Principal (violão e guitarra)
tom: E
[Tab - Intro]

E|-0--------------------------------------------------|
B|--0---------0-0-------------------------------------|
G|---1----1h2-2-1-------------------------------------|
D|----2---2---2-2-------------------------------------|
A|-----2--2---2-2-------------------------------------|
E|------0-0---0-0-------------------------------------|

E                       B
  The postman delivered
                         Bb  A
A "past due" bill notice
                E                   B
The alarm clock rang two hours late
E                                  B
  The garbage man left all the trash
                A
On the sidewalk
                 E                  B
And the hinges fell off of the gate

A                       G#m
  And this morning at breakfast
A                     G#m
  I spilled all the coffee
       E          B            C#m  B
And I opened the door on my knee
       A
Oh the last thing I needed
    E                        C#m
The first thing this morning
       B                       E
Was to have you walk out on me

[Tab - Solo]

E|----------------------------------------------------|
B|----------------------------------------------------|
G|----------------------------------------------------|
D|---------------------------------------------9/11-9-|
A|---------7-7-7h9-7-9/11-9-7-6-------6-7-9-11--------|
E|-7-7-7/9----------------------9-7-9-----------------|

E|----------------------------------------------------|
B|-11--9----------------------------------------------|
G|----------------------------------------------------|
D|----------------------------------------------------|
A|----------------------------------------------------|
E|----------------------------------------------------|

E                               B
  Last night you came home late
                               Bb
And I knew you'd been drinking
        A          E               B
By that old mellow look on your face
E                             B
  I thought, "It don't matter
                               B  Bb  A
'Cause it's the holiday season"
                    E               B
And you fill such a big empty space

      A           G#m
And I laid down beside you
      A           G#m
And I wanted your lovin'
        E               B                C#m  B
Because your love makes my life complete
        A
But the last thing I needed
    E                C#m
The first thing this morning
       B                       E
Was to have you walk out on me

      A           F#m   A
So excuse me for lookin'
        F#m              E  F#m  G#m
Like my world just ended
     A            F#m    A
And excuse me for lookin'
             F#m                E  F#m  G#m
Like I just lost my best friend
     A            F#m
And excuse me for livin'
          A
And being forgiving
            F#m                      E  F#m  G#m
So just go on if you want to be free

       A
But the last thing I needed
    E                C#m
The first thing this morning
       B                       E
Was to have you walk out on me

       A
But the last thing I needed
    E                C#m
The first thing this morning
       B                       E
Was to have you walk out on me
00:00 / 00:00
Outros vídeos desta música
Repetir
Outros vídeos desta música
Compositor não encontrado.
Colaboração e revisão:
  • Fábio Silva
12 exibições
    • ½ Tom
    • A
    • Bb
    • B
    • C
    • Db
    • D
    • Eb
    • E
    • F
    • F#
    • G
    • Ab
  • Adicionar à lista

    0 comentários

    Ver todos os comentários

    Conseguiu tocar?

    0 Tocaram 0 Ainda não

    Grave um vídeo tocando Last Thing I Needed First Thing This Morning e nos envie!

    Entre para oCifra Club PRO

    Tenha acesso a benefícios exclusivos no App e no Site

    • Chega de anúncios

    • Prioridade de compra em lançamentos

    • Mais recursos no app do Afinador

    • Atendimento Prioritário

    • Descontos nos produtos Cifra Club

    • Ajude a produzir mais conteúdo

    00:00 / 00:00

    Cifra Club Pro

    Aproveite o Cifra Club com benefícios exclusivos e sem anúncios
    Cifra Club Pro
    Aproveite o Cifra Club com benefícios exclusivos e sem anúncios
    OK