Cifra Club

Aprenda

The Unholy Intro

Slash

Cifra: Principal (violão e guitarra)
tom: C (forma dos acordes no tom de Db) Afinação: Eb Ab Db Gb Bb Eb
 Use fingerpicking  
                                      
      Q    Q    Q    Q       Q    Q    Q    Q     
D#||----------------------|----------------------|
A#||--1--------------1----|--3--------------3----|
F#||------------2---------|------------1---------|
C#||-------0--------------|-------0--------------|
G#||----------------------|----------------------|
D#||--1-------------------|--0-------------------|


  Q    Q    Q    Q       Q    Q    Q    Q       Q    Q    Q    Q     
----------------------|----------------------|----------------------|
--3---------0----3----|--3--------------3----|--4--------------4----|
----------------------|------------2---------|------------5---------|
-------0--------------|-------0--------------|-------0--------------|
----------------------|----------------------|----------------------|
--3-------------------|--1-------------------|--4-------------------|

  Q    Q    Q    Q       Q    Q    Q    Q       Q    Q    Q    Q     
----------------------|----------------------|----------------------|
--3--------------3----|--3---------0----3----|--3--------------3----|
------------1---------|----------------------|------------2---------|
-------0--------------|-------0--------------|-------0--------------|
----------------------|----------------------|----------------------|
--0-------------------|--3-------------------|--2-------------------|

  Q    Q    Q    Q       Q    Q    Q    Q       Q    Q    Q    Q     
----------------------|----------------------|----------------------|
--1--------------1----|--3--------------3----|--3---------0----3----|
------------2---------|------------1---------|----------------------|
-------0--------------|-------0--------------|-------0--------------|
----------------------|----------------------|----------------------|
--1-------------------|--0-------------------|--3-------------------|

  Q    Q    Q    Q       Q    Q    Q    Q       Q    Q    Q    Q     
----------------------|----------------------|----------------------|
--3--------------3----|--4--------------4----|--3--------------3----|
------------2---------|------------5---------|------------1---------|
-------0--------------|-------0--------------|-------0--------------|
----------------------|----------------------|----------------------|
--1-------------------|--4-------------------|--0-------------------|

  Q    Q    Q    Q       Q    Q    Q    Q       Q    Q    Q    Q     
----------------------|----------------------|----------------------|
--3---------0----3----|--3--------------3----|--1--------------1----|
----------------------|------------2---------|--2----2----2---------|
-------0--------------|-------0--------------|-------0----0---------|
----------------------|----------------------|----------------------|
--3-------------------|--2-------------------|--1----1----1---------|

  Q    Q    Q    Q       Q    Q    Q    Q       Q    Q    Q    Q     
----------------------|----------------------|----------------------|
--3--------------3----|--3---------0----3----|--3--------------3----|
--1----1----1---------|--4----4--------------|--2----2----2---------|
-------0----0---------|-------0----0---------|-------0--------------|
----------------------|----------------------|----------------------|
--0----0----0---------|--3----3----3---------|--1----1----1---------|

  Q    Q    Q    Q       Q    Q    Q    Q       Q    Q    Q    Q     
----------------------|----------------------|----------------------|
--4--------------4----|--3--------------3----|--3---------0----3----|
--5----5----5---------|--1----1----1---------|--4----4--------------|
-------0--------------|-------0--------------|-------0--------------|
----------------------|----------------------|----------------------|
--4----4----4---------|--0----0----0---------|--3----3----3---------|

   Q    Q    Q    Q       Q    E  E  E  E  E  E     E  E  E  E  E  E  E  E
----------------------|-------------------------|--------------------------|
--3-------------------|--1-------------------L--|--3--------------------L--|
--2----2----2----2----|--2-------------------L--|--1--------------------L--|
----------------------|--0----0--0--0--0--0--0--|--0--0--0--0--0--0--0--0--|
----------------------|-------------------------|--------------------------|
--2-------------------|-------------------------|--------------------------|

   E  E  E  E  E  E  E  E     E  E  E  E  E  E  E  E
--------------------------|--------------------------|
--3--------------------L--|--1--------------------L--|
--4--------------------L--|--2--------------------L--|
--0--0--0--0--0--0--0--0--|--0--0--0--0--0--0--0--0--|
--------------------------|--------------------------|
--------------------------|--------------------------|

   E  E  E  E  E  E  E  E     E  E  E  E  E  E  E  E
--------------------------|--------------------------|
--4--------------------L--|--3--------------------L--|
--5--------------------L--|--1--------------------L--|
--0--0--0--0--0--0--0--0--|--0--0--0--0--0--0--0--0--|
--------------------------|--------------------------|
--------------------------|--------------------------|

   E  E  E  E  E  E  E  E     E  E  E  E  E  E  E  E
--------------------------|--------------------------||
--3--------------------L--|--3--------------------L--||
--4--------------------L--|--2--------------------L--||
--0--0--0--0--0--0--0--0--|--0--0--0--0--0--0--0--0--||
--------------------------|--------------------------||
--------------------------|--------------------------||
Composição de Slash / Myles Kennedy
Colaboração e revisão:
  • Ricardo Vilela
296 exibições
    • ½ Tom
    • A
    • Bb
    • B
    • C
    • Db
    • D
    • Eb
    • E
    • F
    • F#
    • G
    • Ab
  • Adicionar à lista

    0 comentários

    Ver todos os comentários
    00:00 / 00:00
    outros vídeos desta música
    repetir qualidade Automático
    Outros vídeos desta música
    00:00 / 00:00
    Automático

    Cifra Club Pro

    Aproveite o Cifra Club com benefícios exclusivos e sem anúncios
    Cifra Club Pro
    Aproveite o Cifra Club com benefícios exclusivos e sem anúncios
    OK