Cifra Club

End of the world

Cold

Cifra: Principal (violão e guitarra)
Selo Cifra Club: esta cifra foi revisada para atender aos critérios oficiais da nossa Equipe de Qualidade.
tom: G
  Intro/Verse   
| -------------------
| -------------------
| --12-(12)-(12)---
| -------------------
| -------------------
| -------------------

   Chorus   gtr. 1 (Terry)
| -----------------------------------------------------------------
| -----------------------------------------------------------------
| -----------------------------------------------------------------
| -----------------5-5--5-5-5-5---------------------------------
| --7-7-7-7-7-7----3-3--3-3-3-3--3-3-3-3-3-3-3-3--2-2-2-2--
| --5-5-5-5-5-5------------------1-1-1-1-1-1-1-1--0-0-0-0--

    Chorus gtr. 2 (Kelly)
| -----------------------------------------------------------------
| -----------------------------------------------------------------
| -----------------------------------------------------------------
| --2-2-2-2-2-2--5-5--5-5-5-5---------------------------------
| --0-0-0-0-0-0--3-3--3-3-3-3--3-3-3-3-3-3-3-3--2-2-2-2--
| -----------------------------1-1-1-1-1-1-1-1--0-0-0-0--

Piano transcribed to guitar
| -----------------------------------------------------------
| -10--12--13--10--12--13--15--14--13--15--14--13--
| -----------------------------------------------------------
| -----------------------------------------------------------
| -----------------------------------------------------------
| -----------------------------------------------------------
Outros vídeos desta música
2.481 exibições
    • ½ Tom
    • A
    • Bb
    • B
    • C
    • Db
    • D
    • Eb
    • E
    • F
    • F#
    • G
    • Ab
  • Adicionar à lista

Afinação da cifra

Afinador online

    0 comentários

    Ver todos os comentários

    Entre para o Cifra Club PRO

    Tenha acesso a benefícios exclusivos no App e no Site

    • Chega de anúncios

    • Mais recursos no app do Afinador

    • Atendimento Prioritário

    • Aumente seu limite de lista

    • Ajude a produzir mais conteúdo

    Cifra Club Pro

    Aproveite o Cifra Club com benefícios exclusivos e sem anúncios
    Cifra Club Pro
    Aproveite o Cifra Club com benefícios exclusivos e sem anúncios
    OK