Cifra Club

One Final Graven Kiss

Cradle of Filth

Tab de baixo: Principal
G
D
A
E

|--0----------------|--0----------------|-------------------|
|-------------------|-------------------|--1----------------|
|-------------------|-------------------|-------------------|
|-------------------|-------------------|-------------------|

-------------------|--0----------------|--0----------------|-----------------|
--1----------------|-------------------|-------------------|-----------------|
-------------------|-------------------|-------------------|--4--------------|
-------------------|-------------------|-------------------|-----------------|


-------------------|------------------|------------------|--0--------------|
-------------------|------------------|------------------|-----------------|
--4----------------|------------------|------------------|-----------------|
-------------------|------------------|------------------|-----------------|

--0----------------|-------------------|-------------------|----------------|
-------------------|--3----------------|--3----------------|--1-------------|
-------------------|-------------------|-------------------|----------------|
-------------------|-------------------|-------------------|----------------|

-------------------|-------------------|-------------------|
--1----------------|--0----------------|--0----------------|
-------------------|-------------------|-------------------|
-------------------|-------------------|-------------------|

--------------------|--------------------|--------------------|
--1--------1--------|--1--------1--------|--0--------0--------|
--------------------|--------------------|--------------------|
--------------------|--------------------|--------------------|

--------------------|--------------------|--------------------|
--0--------0--------|--1--------1--------|--1--------1--------|
--------------------|--------------------|--------------------|
--------------------|--------------------|--------------------|

--------------------|--------------------|--------------------|
--0--------0--------|--0--------0--------|--------------------|
--------------------|--------------------|--3--------3--------|
--------------------|--------------------|--------------------|

--------------------|--------------------|--------------------|
--------------------|--------------------|--------------------|
--3--------3--------|--3--------3--------|--3--------3--------|
--------------------|--------------------|--------------------|

--0----------------|--0----------------|-------------------|----------------|
-------------------|-------------------|--1----------------|--1-------------|
-------------------|-------------------|-------------------|----------------|
-------------------|-------------------|-------------------|----------------|

--0----------------|--0----------------|-------------------|----------------|
-------------------|-------------------|-------------------|----------------|
-------------------|-------------------|--4----------------|--4-------------|
-------------------|-------------------|-------------------|----------------|

--0----------------|--0----------------|-------------------|----------------|
-------------------|-------------------|--1----------------|--1-------------|
-------------------|-------------------|-------------------|----------------|
-------------------|-------------------|-------------------|----------------|

--0----------------|--0----------------|-------------------|----------------|
-------------------|-------------------|-------------------|----------------|
-------------------|-------------------|--4----------------|--4-------------|
-------------------|-------------------|-------------------|----------------|

------------------|------------------|--0----------------|--0---------------|
------------------|------------------|-------------------|------------------|
------------------|------------------|-------------------|------------------|
------------------|------------------|-------------------|------------------|

--0----------------|--0----------------|--0----------------|--0-------------|
-------------------|-------------------|-------------------|----------------|
-------------------|-------------------|-------------------|----------------|
-------------------|-------------------|-------------------|----------------|

--0----------------|--0----------------|--0----------------|
-------------------|-------------------|-------------------|
-------------------|-------------------|-------------------|
-------------------|-------------------|-------------------|

--0----------------|
-------------------|
-------------------|
-------------------|
00:00 / 00:00
Outros vídeos desta música
Repetir
Outros vídeos desta música
Composição de Cradle of Filth / Dani Dark
273 exibições

0 comentários

Ver todos os comentários

Conseguiu tocar?

0 Tocaram 0 Ainda não

Grave um vídeo tocando One Final Graven Kiss e nos envie!

Entre para oCifra Club PRO

Tenha acesso a benefícios exclusivos no App e no Site

  • Chega de anúncios

  • Prioridade de compra em lançamentos

  • Mais recursos no app do Afinador

  • Atendimento Prioritário

  • Descontos nos produtos Cifra Club

  • Ajude a produzir mais conteúdo

00:00 / 00:00

Cifra Club Pro

Aproveite o Cifra Club com benefícios exclusivos e sem anúncios
Cifra Club Pro
Aproveite o Cifra Club com benefícios exclusivos e sem anúncios
OK