Cifra Club

Black Curtains

Days Of The New

Cifra: Principal (violão e guitarra)
Selo Cifra Club: esta cifra foi revisada para atender aos critérios oficiais da nossa Equipe de Qualidade.
tom: C
E|E|-------------------------------------------------------------------------------||
                       BAC K CURTAINS - Days Of The New
E|E|-------------------------------------------------------------------------------||
Tabbed by: Dalibor Lekic

Tuning: D G D F A D


Intro:

E|-------------------0---------------------------------------------------|
B|-------------------0---------------------------------------------------|
G|---0-0-0-0--0-0-0--0-0-0-0---------0-0-0-0-0-0-0-0--0-0-0-0------------|
D|---0-0-0-0--0-0-0--0-0-0-0---------0-0-0-0-0-0-0-0--0-0-0-0------------|
A|---7-7-7-7--7-7-7--3-3-3-3------5--7\5-5-7\5-5-7\5--3-3-3-3--3-2-1-0---|
E|---7-3-3-0--7-3-0--5-5-5-5--5-7------3-3-0-3-3-0-3--5-5-3-3------------|

E|----------------------------------------------------------------------|
B|--------------------------------------------------------0---1p0-------|
G|---0-0-0-0--------0-0--0-0-0-0---------0-0-0-0--0-x-0-0-0-------0-----|
D|---0-0-0-0------0-0-0--0-0-0-0---------0-0-0-0--0-x-0-0-0---------0---|
A|---7-7-7-7--5/7---7-7--3-3-3-3------5--7\5-5-7--7-x-7-7-3-------------|
E|---0-3-3-0--------3-0--5-5-5-5--5-7------3-3-0--7-x-6-5-3-------------|


Verse:

E|-------------------------------------------------------------------------|
B|-------------------------------------------------------------------------|
G|---0-0-0--------0-0--------0-0-0-0-0------------0-0-0--------0-0-0-0-0---|
D|---0-0-0------0-0-0------0-0-0-0-0-0------------0-0-0------0-0-0-0-0-0---|
A|---7-7-7--5/7---7-7--5/7---7-0-3-3-3--3-2-1-0---7-7-7--5/7---7-7-3-3-5---|
E|---0-3-0--------3-0--------3-0-3-3-3------------0-3-0--------3-0-3-5-7---|


Pre-chorus:

E|-----------------------------0---------|
B|-------------------------------0-------|
G|-------0------0------0---0-------0-----| x2
D|-----0------0------0---0---0-------0---|
A|-----------------7---------------------|
E|---8-----10------5---------------------|

E|-------------------------------------------0---|
B|-----------------------------0-----------0-----|
G|-------0------0------0---0-----0---0---0-------|
D|-----0------0------0---0---0-----0---0---------|
A|-----------------7-----------------------------|
E|---8-----10------5-----------------------------|

E|-------------------------------0---|
B|-------------------------------0---|
G|---0-----0---0-----------------0---|
D|---0---0---0---------0-------0-0---|
A|---3-3-------------3-------5---7---|
E|---3-----------3-5-----5-7-----7---|


Chorus:

E|---0-0-0-0--0-0-0--0-0-0-0---------0-0-0-0-0-0-0-0--0-0-0-0-0-0---|
B|---0-0-0-0--0-0-0--0-0-0-0---------0-0-0-0-0-0-0-0--0-0-0-0-0-0---|
G|---0-0-0-0--0-0-0--0-0-0-0---------0-0-0-0-0-0-0-0--0-0-0-0-0-0---|
D|---0-0-0-0--0-0-0--0-0-0-0---------0-0-0-0-0-0-0-0--0-0-0-0-0-0---|
A|---7-7-7-7--7-7-7--3-3-3-3------5--7\5-5-7\5-5-7\5--3-3-3-5-5-5---|
E|---7-3-3-0--7-3-0--5-5-5-5--5-7------3-3-0-3-3-0-3--5-5-5-7-7-7---|

E|---0-0-0-0--0-0-0--0-0-0-0---------0-0-0-0---------0-0---|
B|---0-0-0-0--0-0-0--0-0-0-0---------0-0-0-0---------0-0---|
G|---0-0-0-0--0-0-0--0-0-0-0---------0-0-0-0-0-x-0-0-0-0---|
D|---0-0-0-0--0-0-0--0-0-0-0---------0-0-0-0-0-x-0-0-0-0---|
A|---7-7-7-7--7-7-7--3-3-3-3------5--7\5-5-7-7-x-7-7-3-3---|
E|---7-3-3-0--7-3-0--5-5-5-5--5-7------3-3-0-7-x-6-5-3-5---|


Post-chorus:

D|E|E|-------------------------------------------------------------------------------||----------------------|
A|E|E|-------------------------------------------------------------------------------||----------------------|
F|---0-0-0--------0-x--------0-0-0-0-0-0---------------0-0-0--------0-x--------0-0-0-0-0-0-------------|
D|---0-0-0------0-0-x------0-0-0-0-0-0---0-0-----------0-0-0------0-0-x------0-0-0-0-0-0---0-0---------|
G|---7-7-7--5/7---7-x--5/7---7-0-3-3-3-------3-2-1-0---7-7-7--5/7---7-x--5/7---7-0-3-3-3-------3-2-1---|
D|---0-3-0--------3-x--------3-0-3-3-3-----------------0-3-0--------3-x--------3-0-3-3-3---------------|


Verse:

E|------------------------------------------------------------------------------|
B|------------------------------------------------------------------------------|
G|---0-0-0--------0-x--------0-0-0-0-0-0---------------0-0-0--------0-0-0-0-0---|
D|---0-0-0------0-0-x------0-0-0-0-0-0---0-0-----------0-0-0------0-0-0-0-0-0---|
A|---7-7-7--5/7---7-x--5/7---7-0-3-3-3-------3-2-1-0---7-7-7--5/7---7-3-3-3-5---|
E|---0-3-0--------3-x--------3-0-3-3-3-----------------0-3-0--------3-3-3-5-7---|


Pre-chorus:

E|-----------------------------0---------|
B|-------------------------------0-------|
G|-------0------0------0---0-------0-----| x2
D|-----0------0------0---0---0-------0---|
A|-----------------7---------------------|
E|---8-----10------5---------------------|

E|-------------------------------------------0---|
B|-----------------------------0-----------0-----|
G|-------0------0------0---0-----0---0---0-------|
D|-----0------0------0---0---0-----0---0---------|
A|-----------------7-----------------------------|
E|---8-----10------5-----------------------------|

E|-------------------------------0---|
B|-------------------------------0---|
G|---0-----0---0-----------------0---|
D|---0---0---0---------0-------0-0---|
A|---3-3-------------3-------5---7---|
E|---3-----------3-5-----5-7-----7---|


Chorus:

E|---0-0-0-0--0-0-0--0-0-0-0---------0-0-0-0-0-0-0-0--0-0-0-0-0-0---|
B|---0-0-0-0--0-0-0--0-0-0-0---------0-0-0-0-0-0-0-0--0-0-0-0-0-0---|
G|---0-0-0-0--0-0-0--0-0-0-0---------0-0-0-0-0-0-0-0--0-0-0-0-0-0---|
D|---0-0-0-0--0-0-0--0-0-0-0---------0-0-0-0-0-0-0-0--0-0-0-0-0-0---|
A|---7-7-7-7--7-7-7--3-3-3-3------5--7\5-5-7\5-5-7\5--3-3-3-5-5-5---|
E|---7-3-3-0--7-3-0--5-5-5-5--5-7------3-3-0-3-3-0-3--5-5-5-7-7-7---|

E|---0-0-0-0--0-0-0--0-0-0-0---------0-0-0-0---------0-0---|
B|---0-0-0-0--0-0-0--0-0-0-0---------0-0-0-0---------0-0---|
G|---0-0-0-0--0-0-0--0-0-0-0---------0-0-0-0-0-x-0-0-0-0---|
D|---0-0-0-0--0-0-0--0-0-0-0---------0-0-0-0-0-x-0-0-0-0---|
A|---7-7-7-7--7-7-7--3-3-3-3------5--7\5-5-7-7-x-7-7-3-3---|
E|---7-3-3-0--7-3-0--5-5-5-5--5-7------3-3-0-7-x-6-5-3-5---|


Post-chorus:

E|--------------------------------------------|
B|--------------------------------------------|
G|---0----------------------0-----------------| x2
D|---0-0-0-0-0-0-0----------0-0-0-0-0-0-0-0---|
A|---7\5-5-5/7-7-7------5---7\5-5-5/7-7-7-7---|
E|-----3-3-3/5-5-5--5-7-------3-3-3/5-5-5-5---|


Bridge:

E|---0-0-0-0-0-0-0-0-0-0-0-0---|
B|---0-0-0-0-0-0-0-0-0-0-0-0---|
G|---0-0-0-0-0-0-0-0-0-0-0-0---| x2
D|---3-3-3-3-3-3-5-5-5-5-5-5---|
A|---3-3-3-2-2-2-5-5-5-5-5-5---|
E|---3-3-3-3-3-3-5-5-5-5-5-5---|


Pre-chorus:

E|-----------------------------0---------|
B|-------------------------------0-------|
G|-------0------0------0---0-------0-----| x2
D|-----0------0------0---0---0-------0---|
A|-----------------7---------------------|
E|---8-----10------5---------------------|

E|-------------------------------------------0---|
B|-----------------------------0-----------0-----|
G|-------0------0------0---0-----0---0---0-------|
D|-----0------0------0---0---0-----0---0---------|
A|-----------------7-----------------------------|
E|---8-----10------5-----------------------------|

E|-----------------------------|
B|-----------------------------|
G|---0-----0---0---------------|
D|---0---0---0---------0-------|
A|---3-3-------------3---------|
E|---3-----------3-5-----5-7---|


Chorus:

E|---0-0-0-0--0-0-0--0-0-0-0---------0-0-0-0-0-0-0-0--0-0-0-0-0-0---|
B|---0-0-0-0--0-0-0--0-0-0-0---------0-0-0-0-0-0-0-0--0-0-0-0-0-0---|
G|---0-0-0-0--0-0-0--0-0-0-0---------0-0-0-0-0-0-0-0--0-0-0-0-0-0---|
D|---0-0-0-0--0-0-0--0-0-0-0---------0-0-0-0-0-0-0-0--0-0-0-0-0-0---|
A|---7-7-7-7--7-7-7--3-3-3-3------5--7\5-5-7\5-5-7\5--3-3-3-5-5-5---|
E|---7-3-3-0--7-3-0--5-5-5-5--5-7------3-3-0-3-3-0-3--5-5-5-7-7-7---|

E|---0-0-0-0--0-0-0--0-0-0-0---------0-0-0-0---------0-0---|
B|---0-0-0-0--0-0-0--0-0-0-0---------0-0-0-0---------0-0---|
G|---0-0-0-0--0-0-0--0-0-0-0---------0-0-0-0-0-x-0-0-0-0---|
D|---0-0-0-0--0-0-0--0-0-0-0---------0-0-0-0-0-x-0-0-0-0---|
A|---7-7-7-7--7-7-7--3-3-3-3------5--7\5-5-7-7-x-7-7-3-3---|
E|---7-3-3-0--7-3-0--5-5-5-5--5-7------3-3-0-7-x-6-5-3-5---|


Post-chorus:

E|--------------------------------------------|
B|--------------------------------------------|
G|---0----------------------0-----------------| x4
D|---0-0-0-0-0-0-0----------0-0-0-0-0-0-0-0---|
A|---7\5-5-5/7-7-7------5---7\5-5-5/7-7-7-7---|
E|-----3-3-3/5-5-5--5-7-------3-3-3/5-5-5-5---|


Outro:

E|-----------------------------------|
B|-----------------------------------|
G|---0-----0---0-----------------0---|
D|---0---0---0---------0-------0-0---|
A|---3-3-------------3-------5---7---|
E|---3-----------3-5-----5-7-----7---|


************************************

| /   slide up
| \   slide down
| p   pull-off
| x   Mute note
Outros vídeos desta música
    30 exibições
      • ½ Tom
      • A
      • Bb
      • B
      • C
      • Db
      • D
      • Eb
      • E
      • F
      • F#
      • G
      • Ab
    • Adicionar à lista

    Afinação da cifra

    Afinador online

      0 comentários

      Ver todos os comentários

      Entre para o Cifra Club PRO

      Tenha acesso a benefícios exclusivos no App e no Site

      • Chega de anúncios

      • Mais recursos no app do Afinador

      • Atendimento Prioritário

      • Aumente seu limite de lista

      • Ajude a produzir mais conteúdo

      Cifra Club Pro

      Aproveite o Cifra Club com benefícios exclusivos e sem anúncios
      Cifra Club Pro
      Aproveite o Cifra Club com benefícios exclusivos e sem anúncios
      OK