Cifra Club

Orch Of The Medium

Days Of The New

Cifra: Principal (violão e guitarra)
Selo Cifra Club: esta cifra foi revisada para atender aos critérios oficiais da nossa Equipe de Qualidade.
tom: Db
E|-0--0--|
B|-0--0--|
G|-0--0--|
D|-0--0--|
A|-0--0--|
E|-0--0--|

E|-0---5-5h7--------------0---5-5h7p5---0-|
B|-5h7--------------------5h7---------7-5-|
G|-0----------------------0-------------0-|
D|-0----------------------0-------------0-|
A|-0----------------------0-------------0-|
E|-0----------------------0-------------0-|

E|-0---5-5h7p5---5h7----7----7h9p7---7p5---5/4---4h5p4h5p4h5-5---5p4-----|
B|-5h7---------------------------------------------------------------7-5-|
G|-0---------------------------------------------------------------------|
D|-0-----------0-----0-----0-------0-----0-----0---------------0---------|
A|-0---------------------------------------------------------------------|
E|-0---------------------------------------------------------------------|

E|-------0-------------------------------------|
B|-----------------0-------------------------5-|
G|-------------0-----------------------4-5-7---|
D|---0-------0-------------------4-5-7---------|
A|----------------------0--4-5-7---------------|
E|-0-------------------------------------------|

E|--------------------------------------------10----10-10--10-10--10p9------|
B|-------5-7p5/7-9--------9p7/9---9h10-----12-------12-12--12-12-------10-9-|
G|---------------0------0---------0---------------0--0--0---0--0-0------0---|
D|---0---------0------0---------0-------0---------0--0--0---0--0------------|
A|--------------------------------------------------------------------------|
E|-0------------------------------------------------------------------------|

E|-------------------------------9-9h10p9------|
B|------9h10-------7------9-9h10----------10-9-|
G|--------------0----------------------------0-|
D|---0--------0---------0----------------------|
A|---------------------------------------------|
E|-0------------------0------------------------|

E|----------------------0--0--0---5-5h7p5h7p5h7p5h7p5---0-|
B|------9h10-------7----5--5--5h7---------------------7-5-|
G|--------------0-------0--0--0-------------------------0-|
D|---0--------0---------0--0--0-------------------------0-|
A|----------------------0--0--0-------------------------0-|
E|-0--------------------0--0--0-------------------------0-|

E|-7-----7-7-x-----7-7-----|
B|-0-----0-0-0-----0-0-----|
G|-0-----0-0-0-----0-0-----|
D|-7-----7-7-x-----7-7-----|
A|-x-----x-x-x-----x-x-----|
E|-0-----------0-------0---|

E|-7-----7-x-8-8-8-8/5-5-|-5/7-x-7-x-8-8-8-8/4-4-|-4/7-x-7-x-8-8-8-8/5-5-|
B|-0-----0-0-0-0-0-0-0-0-|-0-0-0-0-0-0-0-0-0-0-0-|-0-0-0-0-0-0-0-0-0-0-0-|
G|-0-----0-0-0-0-0-0-0-0-|-0-0-0-0-0-0-0-0-0-0-0-|-0-0-0-0-0-0-0-0-0-0-0-|
D|-7-----7-x-8-8-8-8/5-5-|-5/7-x-7-x-8-8-8-8/4-4-|-4/7-x-7-x-8-8-8-8/5-5-|
A|-x-----x-x-x-x-x-x-x-x-|-x-x-x-x-x-x-x-x-x-x-x-|-x-x-x-x-x-x-x-x-x-x-x-|
E|-0---------0-0-0-0-0-0-|-----------0-0-0-0-0-0-|-----------0-0-0-0-0-0-|

C#|-5/7-x-7-x-8-8-8-8/4-4-|-4/7-x-7-x-8-8-8-8/5-5-|-5/7-x-7-x-8-8-8-8/5-5-|
G#|-0-0-0-0-0-0-0-0-0-0-0-|-0-0-0-0-0-0-0-0-0-0-0-|-0-0-0-0-0-0-0-0-0-0-0-|
C#|-0-0-0-0-0-0-0-0-0-0-0-|-0-0-0-0-0-0-0-0-0-0-0-|-0-0-0-0-0-0-0-0-0-0-0-|
C#|-5/7-x-7-x-8-8-8-8/4-4-|-4/7-x-7-x-8-8-8-8/5-5-|-5/7-x-7-x-8-8-8-8/5-5-|
G#|-x-x-x-x-x-x-x-x-x-x-x-|-x-x-x-x-x-x-x-x-x-x-x-|-x-x-x-x-x-x-x-x-x-x-x-|
C#|-----------0-0-0-0-0-0-|-----------0-0-0-0-0-0-|-----------0-0-0-0-0-0-|

E|-5/7-x-7-x-8-8-8-8/5-5-|-5/7-x-7-x-8-8-8-8-|-----------0-0-0-|
B|-0-0-0-0-0-0-0-0-0-0-0-|-0-0-0-0-0-0-0-0-0-|---------0-0-0-0-|
G|-0-0-0-0-0-0-0-0-0-0-0-|-0-0-0-0-0-0-0-0-0-|-----0-0-0-0-0-0-|
C#|-5/7-x-7-x-8-8-8-8/5-5-|-5/7-x-7-x-8-8-8-8-|-0-0-0-0-0-0-0-0-|
E|-----------0-0-0-0-0-0-|-----------0-0-0-0-|-------------0-0-|
B|-x-x-x-x-x-x-x-x-x-x-x-|-x-x-x-x-x-x-x-x-x-|-----------0-0-0-|

E|-0-----0-0-0-0-0-0-0-0-|-0-0-0-0-0-0-0-0-0-0-0-|
B|-5-----5-x-7-7-7-7/3-3-|-3/5-x-5-x-7-7-7-7/3-3-|
G|-0-----0-0-0-0-0-0-0-0-|-0-0-0-0-0-0-0-0-0-0-0-|
D|-0-----0-0-0-0-0-0-0-0-|-0-0-0-0-0-0-0-0-0-0-0-|
A|-5-----5-x-7-7-7-7/3-3-|-3/5-x-5-x-7-7-7-7/3-3-|
E|-0---------0-0-0-0-0-0-|-----------0-0-0-0-0-0-|


Repeat this section a few times
C#|-0-0-0-0-0-0-0-0-0-0-0-|-0-0-0-0-0-0-0-0-0-0-0-|
G#|-0-0-0-0-x-7-7-7-7/3-3-|-0-0-0-0-x-7-7-7-7/3-3-|
C#|-0-0-0-0-0-0-0-0-0-0-0-|-0-0-0-0-0-0-0-0-0-0-0-|
C#|-0-0-0-0-0-0-0-0-0-0-0-|-0-0-0-0-0-0-0-0-0-0-0-|
E|-0---------0-0-0-0-0-0-|-0---------0-0-0-0-0-0-|
B|-0-------x-7-7-7-7/3-3-|-0-------x-7-7-7-7/3-3-|

C#|-0-0-0-0-0-0-0-0-0-0-0-|-0-0-0-0-0-0-0-0-0-0-0-|
G#|-3/5-x-5-x-7-7-7-7/3-3-|-3/5-x-5-x-7-7-7-7/3-3-|
C#|-0-0-0-0-0-0-0-0-0-0-0-|-0-0-0-0-0-0-0-0-0-0-0-|
C#|-0-0-0-0-0-0-0-0-0-0-0-|-0-0-0-0-0-0-0-0-0-0-0-|
G#|-3/5-x-5-x-7-7-7-7/3-3-|-3/5-x-5-x-7-7-7-7/3-3-|
C#|-0---------0-0-0-0-0-0-|-----------0-0-0-0-0-0-|

E|---0---0---0----0---0----0---0---0---0---0---0---0---0---0-------|
B|-5---7---8---12---8---10---7---8---5---7---4---5---0---------0---|
G|-------------------------------------------------------3h5-3-2-0-|
D|---------------------------------------------------------------0-|
A|-----------------------------------------------------------------|
E|-----------------------------------------------------------------|

E|---0---0---0----0---0----0---0---0---0---0---0---0---0---0-------|
B|-5---7---8---12---8---10---7---8---5---7---4---5---0---------0---|
G|-------------------------------------------------------3h5-3-2-0-|
D|---------------------------------------------------------------0-|
A|---------------------------------------------------------------0-|
E|-----------------------------------------------------------------|

E|---0---0---0----0---0----0----0----0----0----0----0----0----0---0-------|
B|-5---7---8---12---8---10---12---13---15---13---12---10---12---------0---|
G|--------------------------------------------------------------3h5-3-2-0-|
D|----------------------------------------------------------------------0-|
A|------------------------------------------------------------------------|
E|------------------------------------------------------------------------|

E|---0---0---0----0---0----0---0---0---0---0---0---0---0---0-0-0-0-|
B|-5---7---8---12---8---10---7---8---5---7---4---5---0---0-0-0-0-0-|
G|------------------0---0----0---0---0---0---0---0---0---3h5-3-2-0-|
D|-----------------------------------0---0---0---0---0---0-0-0-0-0-|
A|---------------------------------------------------------------0-|
E|---------------------------------------------------------------0-|

2nd time, end with this
E|--------------------------------------------|
B|--------------------------------------------|
G|---------------3-5-3-2---2/7--7h8-7h8-7b8b7-|
D|-3-5-3-2-0----------------------------------|
A|-0-0-0-0-0----------------------------------|
E|--------------------------------------------|

E|---0--------------------------------------------|
B|-----0---0-----0-----0-----0----------0---------|
G|-----------0-----0-----0-----0----------0-------|
D|-0-----2-----3-----5-----2-------0-2--------0-2-|
A|-------------------------------0-----4----0-----|
E|------------------------------------------------|

E|---0--------------------------------------------|
B|-----0---0-----0-----0-----0-----0--------------|
G|-----------0-----0-----0-----0------------------|
D|-0-----2-----3-----5-----2---------2-0----------|
A|-------------------------------4----------------|
E|------------------------------------------2b3b2-|

E|---------------0--------------------------------|
B|---0-----0-------0---0--------------------------|
G|-----0-----0-----------0------------------------|
D|-------2-----3-----5-----2-------0-2-2------0-2-|
A|-------------------------0-----------4----------|
E|-0----------------------------------------------|

E|---0------------------------------------0--|
B|-----0---0-----0-----0-----0-----------0---|
G|-----------0-----0-----0-----0--------0----|
D|-0-----2-----3-----5-----2-------2---0-----|
A|-------------------------------4----0------|
E|-----------------------------------0-------|

E|-----------------|
B|-----------------|
G|-----------------|
D|-----------------| play 8x
A|---0---0---0---0-|
E|-0---0---0---0---|

E|----------------------------------------------|
B|----------------------------------------------|
G|-5-7-7~--5-7-8-7-5-7---5-7-8-8/10-8-7~--5-7-8-|
D|-0-0-0---0-0-0-0-0-0---0-0-0-0-0--0-0---0-0-0-|
A|----------------------------------------------|
E|-------0-------------0----------------0-------|

E|-----------------------------------------------|
B|-----------------------------------------------|
G|-8/12-12-10-8---10-10-8-7---8-8---5--5---7--7~-|
D|-0-0--0--0--0---0--0--------0-0---0--0---0--0--|
A|-----------------------------------------------|
E|-----------------------------------------------|

E|------------------0-|-------------------------------------|
B|------------------0-|-------------------------------------|
G|-5-7-8-7-5-7------7-|-2h3--3-3--2h3p2h3p2h3p2-0---0-0-0-0-|
D|---0-0-0-0-0------0-|---------------------------0---0-0-0-|
A|--------------------|-------------------------------------|
E|--------------------|-------------------------------------|

E|-0-0-0---0-0-0-0-0-0---0-0-0-0-0--0-0---0-0-0-|
B|-5-7-7~--5-7-8-7-5-7---5-7-8-8/10-8-7~--5-7-8-|
G|-0-0-0---0-0-0-0-0-0---0-0-0-0-0--0-0---0-0-0-|
D|----------------------------------------------|
A|----------------------------------------------|
E|-------0-------------0----------------0-------|

E|---0--0--0--0---0--0--0-0---0-0---0--0---0--0----|
B|-8/12-12-10-8---10-10-8-7---8-8---5--5---7--7~---|
G|-0-0--0--0--0---0--0--0-0---0-0---0--0---0--0----|
D|-------------------------------------------------|
A|-------------------------------------------------|
E|-----------------------------------------------0-|

E|-0-0-0-0-0-0------0-|-----0-0-0-0--------------|
B|-5-7-8-7-5-7------7-|-4-4-4-4-4-7------5p4h5---|
G|-0-0-0-0-0-0------0-|-0-0-0-0-0-0--------------|
D|------------------0-|--------------------------|
A|--------------------|------------------------0-|
E|--------------------|--------------------------|

E|-----------------|
B|-----------------|
G|-----------------|
D|-----------------| play 4x
A|---0---0---0---0-|
E|-0---0---0---0---|

Play 2x
E|----------------------------------------------------|
B|----------------------------------------------------|
G|----------------------------------------------------|
D|---------------------------------0-0-0----0-0-0-0-0-|
G#|-5-5-xx-7-8-7-5-4-5-5-xx-7-8-7-5-7-7-7-xx-5-7-8-7-5-|
C#|-----0---------------------------------0------------|

E|------------------------------------|
B|------------------------------------|
G|------------------------------------|
D|-0-0--0---0--0---0--0---0-0---0-0-0-|
A|-5/12-12--10-8---10-10--8-7---8-8-4-|
E|------------------------------------|

C#|-0-0----0-0-0-0-0-0-0----0-0-0-0-0-0-0----0-0-0-0-0-|
G#|-5-5-xx-7-8-7-5-4-5-5-xx-7-8-7-5-7-7-7-xx-5-7-8-7-5-|
C#|-0-0-00-0-0-0-0-0-0-0-00-0-0-0-0-0-0-0-00-0-0-0-0-0-|
C#|-0-0-00-0-0-0-0-0-0-0-00-0-0-0-0-0-0-0-00-0-0-0-0-0-|
G#|-5-5-xx-7-8-7-5-4-5-5-xx-7-8-7-5-7-7-7-xx-5-7-8-7-5-|
C#|-0-0----0-0-0-0-0-0-0----0-0-0-0-0-0-0----0-0-0-0-0-|

E|-0-0--0---0--0---0--0---0-0---0-0-0-|
B|-5/12-12--10-8---10-10--8-7---8-8-4-|
G|-0-0--0---0--0---0--0---0-0---0-0-0-|
D|-0-0--0---0--0---0--0---0-0---0-0-0-|
A|-5/12-12--10-8---10-10--8-7---8-8-4-|
E|-0-0--0---0--0---0--0---0-0---0-0-0-|

C#|-0-0----0-0-0-0-0-0-0----0-0-0-0-0-0-0----|
G#|-5-5-xx-7-8-7-5-4-5-5-xx-7-8-7-5-7-7-7-xx-|
C#|-0-0-00-0-0-0-0-0-0-0-00-0-0-0-0-0-0-0-00-|
C#|-0-0-00-0-0-0-0-0-0-0-00-0-0-0-0-0-0-0-00-|
G#|-5-5-xx-7-8-7-5-4-5-5-xx-7-8-7-5-7-7-7-xx-|
C#|-0-0----0-0-0-0-0-0-0----0-0-0-0-0-0-0----|

C#|-0-0-0-0-0-0--0-0--0--0--0--0--0--0--0--0---0-|
G#|-5-7-8-7-8-10-8-10-12-10-12-13-12-13-15-13-15-|
E|-0-0-0-0-0-0--0-0--0--0--0--0--0--0--0--0---0-|
B|-0-0-0-0-0-0--0-0--0--0--0--0--0--0--0--0---0-|
G#|-5-7-8-7-8-10-8-10-12-10-12-13-12-13-15-13-15-|
C#|-0-0-0-0-0-0--0-0--0--0--0--0--0--0--0--0---0-|

C#|-0--0--0--0--0--0--0--0--0--0--0--0-0--0-0-0-0-0-0-0-0-0-|
G#|-17-15-13-15-13-12-13-12-10-12-10-8-10-8-7-5-7-5-4-5-4-5-|
E|-0--0--0--0--0--0--0--0--0--0--0--0-0--0-0-0-0-0-0-0-0-0-|
B|-0--0--0--0--0--0--0--0--0--0--0--0-0--0-0-0-0-0-0-0-0-0-|
G#|-17-15-13-15-13-12-13-12-10-12-10-8-10-8-7-5-7-5-4-5-4-5-|
C#|-0--0--0--0--0--0--0--0--0--0--0--0-0--0-0-0-0-0-0-0-0-0-|

E|-7-5-7-8-7-8-10-8-10-12-10-12-14-14-|----------------14-----14-|
B|-0-0-0-0-0-0-0--0-0--0--0--0--0--0--|-------------------0------|
G|-0-0-0-0-0-0-0--0-0--0--0--0--0--0--|-14-12-14-12-11------11---|
D|-7-5-7-8-7-8-10-8-10-12-10-12-14-14-|--------------------------|
A|-x-x-x-x-x-x-x--x-x--x--x--x--x--x--|--------------------------|
E|-0-0-0-0-0-0-0--0-0--0--0--0--0--0--|--------------------------|

E|-----------------|
B|-----------------|
G|-----------------|
D|-----------------| play 8x
A|---0---0---0---0-|
E|-0---0---0---0---|

C#|-0-0----0-0-0-0-0-0-0----0-0-0-0-0-0-0----0-0-0-0-0-|
G#|-5-5-xx-7-8-7-5-4-5-5-xx-7-8-7-5-7-7-7-xx-5-7-8-7-5-|
C#|-0-0-00-0-0-0-0-0-0-0-00-0-0-0-0-0-0-0-00-0-0-0-0-0-|
C#|-0-0-00-0-0-0-0-0-0-0-00-0-0-0-0-0-0-0-00-0-0-0-0-0-|
G#|-5-5-xx-7-8-7-5-4-5-5-xx-7-8-7-5-7-7-7-xx-5-7-8-7-5-|
C#|-0-0----0-0-0-0-0-0-0----0-0-0-0-0-0-0----0-0-0-0-0-|

E|-0-0--0---0--0---0--0---0-0---0-0-0-|
B|-5/12-12--10-8---10-10--8-7---8-8-4-|
G|-0-0--0---0--0---0--0---0-0---0-0-0-|
D|-0-0--0---0--0---0--0---0-0---0-0-0-|
A|-5/12-12--10-8---10-10--8-7---8-8-4-|
E|-0-0--0---0--0---0--0---0-0---0-0-0-|

C#|-0-0----0-0-0-0-0-0-0----0-0-0-0-0-0-0----|
G#|-5-5-xx-7-8-7-5-4-5-5-xx-7-8-7-5-7-7-7-xx-|
C#|-0-0-00-0-0-0-0-0-0-0-00-0-0-0-0-0-0-0-00-|
C#|-0-0-00-0-0-0-0-0-0-0-00-0-0-0-0-0-0-0-00-|
G#|-5-5-xx-7-8-7-5-4-5-5-xx-7-8-7-5-7-7-7-xx-|
C#|-0-0----0-0-0-0-0-0-0----0-0-0-0-0-0-0----|

C#|-0-0-0-0-0-0--0-0--0--0--0--0--0--0--0--0---0-|
G#|-5-7-8-7-8-10-8-10-12-10-12-13-12-13-15-13-15-|
E|-0-0-0-0-0-0--0-0--0--0--0--0--0--0--0--0---0-|
B|-0-0-0-0-0-0--0-0--0--0--0--0--0--0--0--0---0-|
G#|-5-7-8-7-8-10-8-10-12-10-12-13-12-13-15-13-15-|
C#|-0-0-0-0-0-0--0-0--0--0--0--0--0--0--0--0---0-|

E|--------0---0----------0---|
B|------17-----17--------17--|
G|-----0---------0-------0---|
D|----0-----------0------0---|
A|--17-------------17----17--|
E|-0-----------------0---0---|
Outros vídeos desta música
      • ½ Tom
      • A
      • Bb
      • B
      • C
      • Db
      • D
      • Eb
      • E
      • F
      • F#
      • G
      • Ab
    • Adicionar à lista

    Afinação da cifra

    Afinador online

      0 comentários

      Ver todos os comentários

      Entre para o Cifra Club PRO

      Tenha acesso a benefícios exclusivos no App e no Site

      • Chega de anúncios

      • Mais recursos no app do Afinador

      • Atendimento Prioritário

      • Aumente seu limite de lista

      • Ajude a produzir mais conteúdo

      Cifra Club Pro

      Aproveite o Cifra Club com benefícios exclusivos e sem anúncios
      Cifra Club Pro
      Aproveite o Cifra Club com benefícios exclusivos e sem anúncios
      OK