Cifra Club

Boundaries

Days Of The New

Cifra: Principal (violão e guitarra)
Selo Cifra Club: esta cifra foi revisada para atender aos critérios oficiais da nossa Equipe de Qualidade.
tom: G#m
E|E|-------------------------------------------------------------------------------||
                          BOUNDARIES - Days Of The New
E|E|-------------------------------------------------------------------------------||
Tabbed by: Dalibor Lekic

Tuning: E B D F# B D


E|-------------------------------------------------------0-----------------|
B|-------------0-----------0------------0----------------------------------|
G|-------0---0-------0---0--------0---0--------0---------------------------|
D|-----2---2-------2---2--------2---2--------2---2---4h5---5p4h5-0h2-4-5---|
A|---2-----------2------------3------------0---------0---------------------|
E|---------------------------------------------------0---------------------|

D |---------------------------------------------5+--------------------------------------------7+---|
B |-------------------------------------------5+--------------------------------------------7+-----|
F#|-----------------------------------------5+--------------------------------------------7+-------|
D |---0-5-4-4-4-4p2p0-4p2p0--0-4-2p0-2-0--5+--------0-5-4-4-4-4p2p0-4p2p0--0-4-2p0-2-0--7+---------|
B |E|E|-------------------------------------------------------------------------------||-----------------|
E |E|E|-------------------------------------------------------------------------------||-----------------|

D |---------------------------------------------5+----------------------------------------|
B |-------------------------------------------5+------------------------------------------|
F#|-----------------------------------------5+--------------------------------------------|
D |---0-5-4-4-4-4p2p0-4p2p0--0-4-2p0-2-0--5+---------0-5-4-4-4-4p2p0-4p2p0--0-4-2p0-2-0---|
B |E|E|-------------------------------------------------------------------------------||--------|
E |E|E|-------------------------------------------------------------------------------||--------|

E|---0--0-0-0--0--0-0-0-0--0-----0--0-0-0--0--0-0-0-0-----0--0-0-0--0--0-0-0-0--0-----0--0-0-0--0--0-0-0---|
B|---0--0-0-0--0--0-0-0-0--0-----0--0-0-0--0--0-0-0-3-----0--0-0-0--0--0-0-0-0--0-----0--0-0-0--0--0-0-0---|
G|---0--0-0-0--0--0-0-0-0--0-----0--0-0-0--0--0-0-0-2-----0--0-0-0--0--0-0-0-0--0-----0--0-0-0--0--0-0-0---|
D|---4--4-2-4--4--4-2-4-2--4-----4--4-2-4--4--4-2-4-0-----4--4-2-4--4--4-2-4-2--4-----4--4-2-4--4--4-2-4---|
A|---0--0-0-0--0--0-0-0-0--0-----0--0-0-0--0--0-0-0-0-----0--0-0-0--0--0-0-0-0--0-----0--0-0-0--0--0-0-0---|
E|---------------------------0h2----------------------0h2-------------------------0h2----------------------|

E|---0--0--0--0--0--0--0--0---|
B|---8--7--5--0--0--0--0--0---|
G|---0--0--0--0--0--0--0--0---|
D|---5--4--2--0--0--0--2--0---|
A|---0--0--0--0--0--0--0--0---|
E|---0--0--0--0--0--0--0--0---|

E|-----------------------------------------|
B|-------------------------------------0---|
G|-------5-----5-----5-----5-----1---------|
D|-----5-----5-----5-----5-----0-----0-----|
A|---8-----7-----5-----3-----2-----0-------|
E|-----------------------------------------|

E|-------0-----0-----0-----0-----0-----------0--------------5---------|
B|-------------------------------------0-----------3\0------0-----5---|
G|----------------------------------------------------------------0---|
D|-----0-----0-----0-----0-----0-----0-----0-----0--------0-----0-----|
A|---0-----0-----0-----0-----0-----0-----0-----0--------0-----0-------|
E|--------------------------------------------------------------------|

D |-------0-----0-----0-----0-----0-------------------0h2-----0-----0h2-----0-----0h2-----0-----2h3p2p0---|
B |-------0-----------------------------3\0-----3---------------------------------------------------------|
F#|---------------------------------------------2---------------------------------------------------------|
D |-----0-----0-----0-----0-----0-----0-------0-----0-------0-----0-------0-----0-------0-----0-----------|
B |---0-----0-----0-----0-----0-----0-------0-----0-------0-----0-------0-----0-------0-----0-------------|
E |E|E|-------------------------------------------------------------------------------||------------------------|

D |-------5-----------0-----0-----0-----0------------------0-----0h2-----0-----2h3p2p0---|
B |-------0-----5-----0--------------------0---------------------------------------------|
F#|-------------0--------------------------1-----------5\2-----2-------2-----2-----------|
D |-----0-----0-----0-----0-----0-----0----0---0---0---0-----0-------0-----0-------------|
B |---0-----0-----0-----0-----0-----0--------0---0---0-----------------------------------|
E |E|E|-------------------------------------------------------------------------------||-------|

E|-------5-----------0---0---0---0---0---|
B|-------0-----5-----0-------------------|
G|-------------0-------------------------|
D|-----0-----0-----0---------------------|
A|---0-----0-----0---------0---0---0-----|
E|---------------------0-----------------|

E|-----0-----------|
B|-----------------|
G|-----------------| x8
D|-------------0---|
A|-----------x-----|
E|---7---5h7-------|

E|---0-0-0-0-0-0-0-0-0-0-0-0-0-0-0-0-0-0-0--------------------------------------------------------|
B|---0-0-0-0-0-0-0-0-0-0-0-0-0-0-0-0-0-0-0--------------------------------------------------------|
G|---0-0-0-0-0-0-0-0-0-0-0-0-0-0-0-0-0-0-0---0-0-0--0-0-x------0--------0-0-0--0-0------0---------|
D|---5-5-5-5-7-9-7-5-5-5-5-5-5-5-5-7-7-7-7---0-0-0--0-0-x--------3-2-0--0-0-0--0-0--------3-2-0---|
A|---3-3-3-3-5-7-5-3-3-3-3-3-3-3-3-5-5-5-5---x-x-x--x-x-x----0----------x-x-x--x-x----0-----------|
E|---3-3-3-3-5-7-5-3-3-3-3-3-3-3-3-5-5-5-5---7-5-7--7-5-x-7\-0----------7-5-7--7-5-7\-0-----------|

E|---0-0-0-0-0-0-0-0--------------------------------------------------------|
B|---0-0-0-0-0-0-0-0--------------------------------------------------------|
G|---0-0-0-0-0-0-0-0---0-0-0--0-0-x---------------0-0-0--0-0------0---------|
D|---5-5-5-5-7-7-7-7---0-0-0--0-0-x------2-3-2-0--0-0-0--0-0--------3-2-0---|
A|---3-3-3-3-5-5-5-5---x-x-x--x-x-x----0-0--------x-x-x--x-x----0-----------|
E|---3-3-3-3-5-5-5-5---7-5-7--7-5-x-7\-0----------7-5-7--7-5-7\-0-----------|

E|---0-0-0-0-0-0-0-0-0-0-0--0-0--0-0-0-0-0-0-0-0-0-0-0-0---|
B|---0-0-0-0-3-3h5-3-0-0-0--0-0--7-5-5-7-3-3-2-3-7-2-3-3---|
G|---1-3-3h5-0-0-0-0-5\3-1--1p0--0-0-0-0-0-0-0-0-0-0-0-2---|
D|---0-0-0-0-0-0-0-0-0-0-0--0-0--0-0-0-0-0-0-0-0-0-0-0-0---|
A|---0-0-0-0-0-0-0-0-0-0-0--0-0--0-0-0-0-0-0-0-0-0-0-0-0---|
E|---0-0-0-0-0-0-0-0-0-0-0--0-0--0-0-0-0-0-0-0-0-0-0-0-0---|

D |---------0-----------0-------------0----------------------0-------------------0---------------------------|
B |-------------0---0-------0-------------0---0---0------0-----0---0---------0-----0---------3-----3-----3---|
F#|-------0---0-----------0---------0---0------------------0-----0-----0-------0-----0-----2---2-----2---2---|
D |-----0-------------0-------0---0-------------0------0-------------0-----0-------------0-------0-----0-0---|
B |E|E|-------------------------------------------------------------------------------||-----0---------------------|
E |---2-----------3-------------2-----------3--------2-------------------3-----------------------------------|

E|---0-0-0-0-0-0-0-0-0-0-0-0---|
B|---0-0-0-0-3-3h5-7-7-7-7-7---|
G|---1-3-3h5-0-0-0-0-0-0-0-5---|
D|---0-0-0-0-0-0-0-0-0-0-0-0---|
A|---0-0-0-0-0-0-0-0-0-0-0-0---|
E|---0-0-0-0-0-0-0-0-0-0-0-0---|

D |-------0-----0-----0-----0-----0-----0------0--------------5----------0-----0-----0-----0---|
B |-------------------------------------------------3\0-------0----5---------------------------|
F#|----------------------------------------------------------------0---------------------------|
D |-----0-----0-----0-----0-----0-----0-----0-----0--------0-----0-----0-----0-----0-----0-----|
B |---0-----0-----0-----0-----0-----0-----0-----0--------0-----0-----0-----0-----0-----0-------|
E |E|E|-------------------------------------------------------------------------------||-------------|

E|-----0-----------|
B|-----------------|
G|-----------------| x12
D|-------------0---|
A|-----------x-----|
E|---7---5h7-------|

E|---0-0-0-0-0-0-0-0-0-0-0-0-0-0-0-0-0-0-0--------------------------------------------------------|
B|---0-0-0-0-0-0-0-0-0-0-0-0-0-0-0-0-0-0-0--------------------------------------------------------|
G|---0-0-0-0-0-0-0-0-0-0-0-0-0-0-0-0-0-0-0---0-0-0--0-0-x------0--------0-0-0--0-0------0---------|
D|---5-5-5-5-7-9-7-5-5-5-5-5-5-5-5-7-7-7-7---0-0-0--0-0-x--------3-2-0--0-0-0--0-0--------3-2-0---|
A|---3-3-3-3-5-7-5-3-3-3-3-3-3-3-3-5-5-5-5---x-x-x--x-x-x----0----------x-x-x--x-x----0-----------|
E|---3-3-3-3-5-7-5-3-3-3-3-3-3-3-3-5-5-5-5---7-5-7--7-5-x-7\-0----------7-5-7--7-5-7\-0-----------|

E|---0-0-0-0-0-0-0-0--------------------------------------------------------|
B|---0-0-0-0-0-0-0-0--------------------------------------------------------|
G|---0-0-0-0-0-0-0-0---0-0-0--0-0-x------0--------0-0-0--0-0------0---------|
D|---5-5-5-5-7-7-7-7---0-0-0--0-0-x--------3-2-0--0-0-0--0-0--------3-2-0---|
A|---3-3-3-3-5-5-5-5---x-x-x--x-x-x----0----------x-x-x--x-x----0-----------|
E|---3-3-3-3-5-5-5-5---7-5-7--7-5-x-7\-0----------7-5-7--7-5-7\-0-----------|

E|---0-0-0-0-0-0-0-0-0-0-0--0-0--0-0-0-0-0-0-0-0-0-0-0-0---|
B|---0-0-0-0-3-3h5-3-0-0-0--0-0--7-5-5-7-3-3-2-3-7-2-3-3---|
G|---1-3-3h5-0-0-0-0-5\3-1--1p0--0-0-0-0-0-0-0-0-0-0-0-2---|
D|---0-0-0-0-0-0-0-0-0-0-0--0-0--0-0-0-0-0-0-0-0-0-0-0-0---|
A|---0-0-0-0-0-0-0-0-0-0-0--0-0--0-0-0-0-0-0-0-0-0-0-0-0---|
E|---0-0-0-0-0-0-0-0-0-0-0--0-0--0-0-0-0-0-0-0-0-0-0-0-0---|

D |---------0-----------0-------------0----------------------0-------------------0---------------------------|
B |-------------0---0-------0-------------0---0---0------0-----0---0---------0-----0---------3-----3-----3---|
F#|-------0---0-----------0---------0---0------------------0-----0-----0-------0-----0-----2---2-----2---2---|
D |-----0-------------0-------0---0-------------0------0-------------0-----0-------------0-------0-----0-0---|
B |E|E|-------------------------------------------------------------------------------||-----0---------------------|
E |---2-----------3-------------2-----------3--------2-------------------3-----------------------------------|

E|---0-0-0-0-0-0-0-0-0-0-0-0---|
B|---0-0-0-0-3-3h5-7-7-7-7-7---|
G|---1-3-3h5-0-0-0-0-0-0-0-5---|
D|---0-0-0-0-0-0-0-0-0-0-0-0---|
A|---0-0-0-0-0-0-0-0-0-0-0-0---|
E|---0-0-0-0-0-0-0-0-0-0-0-0---|

E|-------0-----0-----0-----0-----0-----0------0--------------5--------|
B|-------------------------------------------------3\0-------0----5---|
G|----------------------------------------------------------------0---|
D|-----0-----0-----0-----0-----0-----0-----0-----0--------0-----0-----|
A|---0-----0-----0-----0-----0-----0-----0-----0--------0-----0-------|
E|--------------------------------------------------------------------|

E|-------0-----0-----0-----0-----0---------------5--------|
B|-------0-----------------------------3\0-------0----5---|
G|----------------------------------------------------0---| x2
D|-----0-----0-----0-----0-----0-----0--------0-----0-----|
A|---0-----0-----0-----0-----0-----0--------0-----0-------|
E|--------------------------------------------------------|

E|-------0-----0-----0--------------5---------|
B|-------0-----------------3\0------0-----5---|
G|----------------------------------------0---| x4
D|-----0-----0-----0-----0--------0-----0-----|
A|---0-----0-----0-----0--------0-----0-------|
E|--------------------------------------------|

************************************

| /   slide up
| \   slide down
| h   hammer-on
| p   pull-off
| +   harmonic
| x   Mute note
Outros vídeos desta música
    7 exibições
      • ½ Tom
      • Am
      • Bbm
      • Bm
      • Cm
      • C#m
      • Dm
      • Ebm
      • Em
      • Fm
      • F#m
      • Gm
      • G#m
    • Adicionar à lista

    Afinação da cifra

    Afinador online

      0 comentários

      Ver todos os comentários

      Entre para o Cifra Club PRO

      Tenha acesso a benefícios exclusivos no App e no Site

      • Chega de anúncios

      • Mais recursos no app do Afinador

      • Atendimento Prioritário

      • Aumente seu limite de lista

      • Ajude a produzir mais conteúdo

      Cifra Club Pro

      Aproveite o Cifra Club com benefícios exclusivos e sem anúncios
      Cifra Club Pro
      Aproveite o Cifra Club com benefícios exclusivos e sem anúncios
      OK