Cifra Club

Dirty Road

Days Of The New

Cifra: Principal (violão e guitarra)
Selo Cifra Club: esta cifra foi revisada para atender aos critérios oficiais da nossa Equipe de Qualidade.
tom: G
G2 (finger picking)
E|----3----------1---------0---------0----------------------------|
B|----4----------2---------2---------0-------2------0-------------|
G|-------------------------------------------2------0-------------|
D|--------------------------------------------------1--------1----|
A|-------------3-------------------0------------------------------|
E|-/5------------------3-----------5------3---------1---1/3-------|

G1
E|----------0---------0---------0--------0-----------0-------0---|
B|--------0--------0---------0--------0-----------0----------0---|
G|-----7--------5----------3--------5----------2-------------0---|
D|-----------------------------------------------------------1---|
A|-----0--------3-------------------0------------------------0---|
E|-------------------------3-------------------3-------------1---|

G1
E|----------------|
B|------------0---|
0---------0-----|
E|--------1-------|
B|----------------|
G|---1/3----------|

Verse
G1
E|--------------------------------0---------0---------------------------|
B|--------0-----------0---------0---------0----------0--------------0---|
G|------0-----------0---------0---------0----------0-----------0------0-|
D|----0-----------0------------------------------0-------------1--1-----|
A|-------------3-----------------------------------------------0--------|
E|--5--------------------3----------5---------0----------------1--------|

after 2 measures play G1 & G2 intro (ie: "Give it some time...")

G2
harmonics
E|-12-------|
B|----12----|
G|-------12-|
D|----------|
A|----------|
E|----------|

E|-----8-----8------8------0----------|
B|------0-----0------0------0---------|
G|-------0-----0------0------0--------|
D|------------------------------------|
A|----7----7-----5-7-----2------5--5--| repeat
E|----5----5-----3-5-----0------3--5--|

E|--8--------------|
B|----0------------|
G|------7----------|
D|-----------------|
A|-----------------|
E|-----------------|

chorus:
G1
"I feel like I'm livin'..."
E|---5----8----3-------------------|
B|---0----0----0----0--------------|
G|---0----0----0----2h3------------| There is 2 ways to play this.Ive seen
D|---5----8----3----0--------------| different ways that he plays it.Look at my
A|---5----8----3----0--------------| live version for the other way.
E|---0----0----0----0--------------|

G2
E|--------0-------------0------------0----------0--------|
B|----0-----0-------0-----0-------0----0-----0----0------|
G|------0-----0-------0-----0-------0----0-----0----0----|
D|--5-------------8-------------3-----------7------------|
A|--5-------------8-------------3-----------7------------|
E|--0-------------0-------------0-----------0------------|


end of chorus/ outro
"Yes I will find..."                                   Harmonics
E|----0-------0-------0--------0---------------------------(7)---|
B|------0---0-----------0---0------------------------------(7)---|
G|---0----0---------0-----0--------0-----------------------(7)---|
D|--5-------------8----------------------------------------(7)---|
A|--5-------------8--------------------7-7-5-7-7-5--7------------|
E|--0-------------0--------------------5-5-3-5-5-3--5------------|

"Yes I fill find..."  bridge intro
E|---0----0--------0----0-------0----0--------0----0--------0----0-------0----0-|
B|-----0----0--------0----0-------0----0--------0----0--------0---0--------0----|
G|------------0-------------0------------0-------------0------------0-----------|
D|------------------------------------------------------------------------------|
A|-7------------7--------------5------------5-------------3------------3--------|
E|-5------------5--------------3------------3-------------1------------1--------|

"Get up and open your eyes.."
E|-----------------0--------------|
B|---0-------0-------0----0-------|
G|-----0-------0-------0----0-----|
D|--------------------------------|
A|-3------5------7----------------|
E|-1------3------5----------------|

"I know you will find away..."
E|------0-----------0---------|
B|---0----0-----0-----0-------|
G|-----0----0-----0-----0-----|
D|--------------------------0-|
A|-3----------5-------------0-|
E|-1----------3---------------|

E|--(12)------(7)------(12)------(7)---|
B|--(12)------(7)------(12)------(7)---|
G|--(12)------(7)------(12)------(7)---|
D|--(12)------(7)------(12)------(7)---|
A|--(12)------(7)------(12)------(7)---|
E|--(12)------(7)------(12)------(7)---|
Outros vídeos desta música
    57 exibições
      • ½ Tom
      • A
      • Bb
      • B
      • C
      • Db
      • D
      • Eb
      • E
      • F
      • F#
      • G
      • Ab
    • Adicionar à lista

    Afinação da cifra

    Afinador online

      0 comentários

      Ver todos os comentários

      Entre para o Cifra Club PRO

      Tenha acesso a benefícios exclusivos no App e no Site

      • Chega de anúncios

      • Mais recursos no app do Afinador

      • Atendimento Prioritário

      • Aumente seu limite de lista

      • Ajude a produzir mais conteúdo

      Cifra Club Pro

      Aproveite o Cifra Club com benefícios exclusivos e sem anúncios
      Cifra Club Pro
      Aproveite o Cifra Club com benefícios exclusivos e sem anúncios
      OK