Cifra Club

Aprenda

Fireball

Deep Purple

Tab de baixo: Estudio
                                                      the
|-----|-----|-----|-----|-----|-----|-----|-----|----------|
|-----|-----|-----|-----|-----|-----|-----|-----|----------|
|-----|-----|-----|-----|-----|-----|-----|-----|--11------|
|-----|-----|-----|-----|-----|-----|-----|-----|----------|

   golden....                 you...               shows me...
   tried...                   you...               tried...
   racing...                                       dancing...
|--------------------------|--------------------|--------------------------|-------2---4--|
|*-------------------------|--------------0-----|--------------------------|--2/4---------|
|*-2--2--2--2--2--2--2--2--|--2--2--2--2-----0--|--2--2--2--2--2--2--2--2--|--------------|
|--------------------------|--------------------|--------------------------|--------------|

   magic...                                       
   way you...                                      sets my...
   gemini...                                       one I...
|--------------------------|--------------------|--------------------------|-------2---4--|
|--------------------------|--------------0-----|--------------------------|--2/4---------|
|--2--2--2--2--2--2--2--2--|--2--2--2--2-----0--|--2--2--2--2--2--2--2--2--|--------------|
|--------------------------|--------------------|--------------------------|--------------|

   stand up...                                 be bop...
   lips are...                                 burning...
   head...                                     mind is...
|--------------------------|----------------|----------------------------|-----2---4--|
|--------------------------|-----4---2---0--|-----------------------2/4--|--4---------|
|--2--2--2--2--2--2--2--2--|--2-------------|--2--2--2--2--2--2--2-------|------------|
|--------------------------|----------------|----------------------------|------------|
  
   wonder...                                       wonder...
   people...                                       really...
   now I...                                        road...
|--------------------------|--------------------|--4---2------|-------------|
|--------------------------|--------------0-----|----------4--|--2----------|
|--2--2--2--2--2--2--2--2--|--2--2--2--2-----0--|-------------|------2---2--|
|--------------------------|--------------------|-------------|-------------|

   oh my         love...
   oh my         soul...
|-------------|-------------|------1---2--|--3---4---1--|
|----------0--|--1---2---2--|--2----------|-------------|
|--0---4------|-------------|-------------|-------------|
|-------------|-------------|-------------|-------------|

   where...       from...        long...
   where...       from...        long...
|--4-----------|-----2--2--4--|--------3--3--4--|para o coda 1 e 2
|-----2--3--4--|--4-----------|--4--4-----------|
|--------------|--------------|-----------------|
|--------------|--------------|-----------------|

 1___________________________   2_____________

|--4--5---5--6---3--3--|------|--4--6---6---9--|--11--|-----|
|----------------------|-----*|----------------|------|-----|
|----------------------|--11-*|----------------|------|-----|
|----------------------|------|----------------|------|-----|

   ma-                                          gic      woman...                      my soul
|--2--2--2--2--2--2--2--2--|--2--2--2--2--2--2--2--2--|--------------------------|--------------------------|
|--------------------------|--------------------------|--4--4--4--4--4--4--4--4--|--4--4--4--4--4--4--4--4--|
|--------------------------|--------------------------|--------------------------|--------------------------|
|--------------------------|--------------------------|--------------------------|--------------------------|

   things...     tell me...
|--5----------|------5------|-------------|-----------------|
|------5------|--5-------5--|-------------|--0--------------|
|----------3--|-------------|------2---2--|------2---3---4--|
|-------------|-------------|--3----------|-----------------|

   magic...                         don't    know
|--------------0--|--1--2-----|--2--2--2--2--0--0--0-----|----------------|
|--0--0--4--4-----|--------4--|-----------------------4--|--4--2---0---4--|
|-----------------|-----------|--------------------------|----------------|
|-----------------|-----------|--------------------------|----------------|

   electric...                            you so I...
|---------------------|----------------|---------------------|----------------|
|--4--4--4--4--4---4--|--4--4---4---4--|--4--4--4--4--4---4--|--4--4---4---4--|
|---------------------|----------------|---------------------|----------------|
|---------------------|----------------|---------------------|----------------|

|---------------------|----------------|---------------------|-------------|
|--4--4--4--4--4---4--|--4--4---4---4--|---------------------|--2---2---4--|
|---------------------|----------------|--1--1--1--1--2---4--|-------------|
|---------------------|----------------|---------------------|-------------|

(coda 1)
|--4--5---6---3--3--|------|------|
|-------------------|------|------|
|-------------------|--10--|--10--|
|-------------------|------|------|

|-----|-----|-----|-----|-----|-----|-----|-----|-----|-----|-----|
|-----|-----|-----|-----|-----|-----|-----|-----|-----|-----|-----|
|--2--|-----|-----|-----|-----|-----|-----|-----|-----|-----|-----|
|-----|-----|-----|-----|-----|-----|-----|-----|-----|-----|-----|

|-----|-----|-----|-----|-----|-----|-----|--------|-----|-----|
|-----|-----|-----|-----|-----|-----|-----|--------|-----|-----|
|-----|-----|-----|-----|-----|--2--|-----|--2--2--|-----|--2--|
|-----|-----|-----|-----|-----|-----|-----|--------|-----|-----|

|-----|--3--4--------|--------------|--------------|
|-----|--------------|--3--4--------|--------------|
|-----|--------1--2--|--------------|-----------0--|
|-----|--------------|--------0--1--|--2--3--4-----|

|--------------------------|---------------------|--------------------------|-------2---4--|
|--------------------------|--------------2---0--|--------------------------|--2/4---------|
|--2--2--2--2--2--2--2--2--|--2--2--2--2---------|--2--2--2--2--2--2--2--2--|--------------|
|--------------------------|---------------------|--------------------------|--------------|

|--------------------------|--------------------|--------------------------|-------2---4--|
|--------------------------|--------------0-----|--------------------------|--2/4---------|
|--2--2--2--2--2--2--2--2--|--2--2--2--2-----0--|--2--2--2--2--2--2--2--2--|--------------|
|--------------------------|--------------------|--------------------------|--------------|

|--------------------------|--------------------|--------------------------|-------------|
|--------------------------|--------------0-----|--------------------------|--4---2---0--|
|--2--2--2--2--2--2--2--2--|--2--2--2--2-----0--|--2--2--2--2--2--2--2--2--|-------------|
|--------------------------|--------------------|--------------------------|-------------|

|--------------------------|--4--2-------------|------------------|--------2--4--|
|--------------------------|--------4---2---0--|-----------0---2--|--3--4--------|
|--2--2--2--2--2--2--2--2--|-------------------|--2--2--2---------|--------------|
|--------------------------|-------------------|------------------|--------------|

(coda 2)
|--4--5---6---9--|--11--|-----|
|----------------|------|-----|
|----------------|------|-----|
|----------------|------|-----|

|--------------------------|--------------------|--------------------------|--------2---4--|
|--------------------------|--------------0-----|--------------------------|--2/4----------|
|--2--2--2--2--2--2--2--2--|--2--2--2--2-----0--|--2--2--2--2--2--2--2--2--|---------------|
|--------------------------|--------------------|--------------------------|---------------|

|--------------------------|-------------4--|--------------------------|--4--4--2------------|
|--------------------------|--4-----2/4-----|--------------------------|-----------4--0---0--|
|--2--2--2--2--2--2--2--2--|----------------|--2--2--2--2--2--2--2--2--|---------------------|
|--------------------------|----------------|--------------------------|---------------------|

|--------------------------|-------------|--------------------------|-------------|
|--------------------------|--4---2---0--|--------------------------|--4---2---0--|
|--2--2--2--2--2--2--2--2--|-------------|--2--2--2--2--2--2--2--2--|-------------|
|--------------------------|-------------|--------------------------|-------------|

|--------------------------|-------------|--------------------------|-------------|
|*-------------------------|--4---2---0--|--------------------------|--4---2---0-*|
|*-2--2--2--2--2--2--2--2--|-------------|--2--2--2--2--2--2--2--2--|------------*|
|--------------------------|-------------|--------------------------|-------------|
Composição de Ian Gillan / Ian Paice / Jon Lord / Ritchie Blackmore / Roger Glover
Colaboração e revisão:
  • valdir júnior
114 exibições

0 comentários

Ver todos os comentários

Conseguiu tocar?

0 Tocaram 0 Ainda não

Grave um vídeo tocando Fireball e nos envie!

00:00 / 00:00
Outros vídeos desta música
Repetir Qualidade Automático
Outros vídeos desta música
00:00 / 00:00
Automático

Cifra Club Pro

Aproveite o Cifra Club com benefícios exclusivos e sem anúncios
Cifra Club Pro
Aproveite o Cifra Club com benefícios exclusivos e sem anúncios
OK