Notificações Amigos pendentes

      Queen

      Love of My Life

      961.981 exibições
      Tom: D
      Intro: D  Bm  Em  A  A7
             D  Bm  G6  D9/F#  E
      
      
          D              Bm
      E|-------2--------------2------------------|
      B|-3-2-3-------3--3-2-3---3----------------|
      G|-2---------2----4---------4--------------|
      D|-0-------0------4-----------4------------|
      A|----------------2------------------------|
      E|-----------------------------------------|
      
      
           Em               A           A7
      E|--0----3---------------------------------|
      B|--0--------3---2---2---3---5---2---------|
      G|--0------0---0---0-2---0---0---0---------|
      D|-----2-------------2---4---5---2---------|
      A|-------------------0-0---0---0-----------|
      E|--0--------------------------------------|
      
      
          D              Bm
      E|-------2--------------2------------------|
      B|-3-2-3-------3--3-2-3---3----------------|
      G|-2---------2----4---------4--------------|
      D|-0-------0------4------------------------|
      A|----------------2-----------0------------|
      E|-----------------------------------------|
      
      
           G6         D9/F#   E
      E|--7----------5-------0-------------------|
      B|--5---5----------5---0---0---0---0-------|
      G|--7-7---7------7---7-1---2---4---7-------|
      D|--5--------4-------------4---6---9-------|
      A|-----------------------------------------|
      E|---------------------0-0---0---0---------|
      
      
       A                       F#m
      Love of my life  you've hurt me
               Bm                 E
      You've broken my heart and now you leave me
       A          G6(9) A7        D
      Love of my life  can't you see
                Bm             F#m
      Bring it back, bring it back
             G        D              G
      Don't take it away from me, because
       D   Bm     Em    A7              D
      you don't know, what it means to me
      
      ( G6  D9/F#  E )
      
       A                     F#m
      Love of my life don't leave me
               Bm                 E
      You've stolen my love, and now desert me
       A          G6(9) A7        D
      Love of my life  can't you see
        Bm      F#m
      Bring it back, bring it back
             G        D              G     D
      Don't take it away from me, because you
      
       Bm     Em    A7              D
      don't know, what it means to me
      
       Bm                       F#m
      You will remember  When this is blown over
          G                        D   F#
      And everything's all by the way
        Bm              F#m
      When I grow older I will be there
      
               D#º
      at your side to remind you
          Em               A               D
      how I still love you I still love you
      
      (Passagem)
      
       Bm
      Love of my life
       F#m              Em  Gm D
      Love of my life, humm
      Dedilhados:
      
      Primeira Parte:
      
           A            F#m        Bm
      E|--------0-------------2---------2--------|
      B|-------------2----------2-3-2-3---3------|
      G|--2-1-2----2--------------4--------------|
      D|--2------2---------4------4--------------|
      A|--0--------------4--------2--------------|
      E|---------------2-------------------------|
      
      
           E
      E|--0--------------------------------------|
      B|--0----0---0---0-------------------------|
      G|--1----2---4---7-------------------------|
      D|-------4---6---9-------------------------|
      A|-----------------------------------------|
      E|--0--0---0---0---------------------------|
      
      
          A   G6(9) A7 D       Bm F#m G     D
      E|--------0-----------2------------3-2-----|
      B|-2-0----0--2------3---3--2-------3-3-3---|
      G|-2---2--2--0----2-----4--2-----0---2---4-|
      D|-2------5--2--0-------4--4---0-----0-----|
      A|-0---------0----------2------------------|
      E|-------------------------2-3-------------|
      
      
          G  D  Bm Em A7
      E|----2------------------------------------|
      B|-3--3--3--0--------2---------------------|
      G|-0--2--4--0------0---0-------------------|
      D|-0--0--4--2----2-------------------------|
      A|-------2-----0---------------------------|
      E|-3--------0------------------------------|
      
      
          D
      E|-----2---7---5---3----2------------------|
      B|-----3---8---7---5----3------------------|
      G|---2------------------2------------------|
      D|-0-----0---0---0---0--0------------------|
      A|-----------------------------------------|
      E|-----------------------------------------|
      
      
           G6         D9/F#   E
      E|--7----------5-------0-------------------|
      B|--5---5----------5---0-------------------|
      G|--7-7---7------7---7-1---2---4---7-------|
      D|--5--------4-------------4---6---9-------|
      A|-----------------------------------------|
      E|---------------------0-0---0---0---------|
      
      
      Variação:
      
          D
      E|-------2---------------------------------|
      B|-----3---3-------------------------------|
      G|---2-------------------------------------|
      D|-0---------------------------------------|
      A|-----------------------------------------|
      E|-----------------------------------------|
      
      
      Segunda Parte:
      
          D
      E|-------2---------------------------------|
      B|-----3---3-------------------------------|
      G|---2-------------------------------------|
      D|-0---------------------------------------|
      A|-----------------------------------------|
      E|-----------------------------------------|
      
      
          Bm         F#m       G
      E|---------2--------------------3----------|
      B|-------3----------2---------3------------|
      G|-----4-4----------2-2-----0-0------------|
      D|---4------------4-------0----------------|
      A|-2------------4--------------------------|
      E|------------2---------3------------------|
      
      
          D            F# Bm         F#m
      E|-2---3---5----2----------2---------------|
      B|-3---5---7----2--------3----------2------|
      G|-2------------3------4-4----------2------|
      D|-0-0---0---0--4----4------------4--------|
      A|--------------4--2------------4----------|
      E|--------------2-------------2------------|
      
      
          D#º      Em        A
      E|-2--2--2----------0----------------------|
      B|-1--1--1--------0---2---3---5---10-------|
      G|-2--2--2--------0---2---0---0---0--------|
      D|-1--1--1------2-----2---4---5---11-------|
      A|------------2-------0-0---0---0----------|
      E|----------0------------------------------|
      
      
      E|-------5---5-----------------------------|
      B|-----7-------7---------------------------|
      G|---7-----6-----6-------------------------|   (4x)
      D|-0---------------------------------------|
      A|-----------------------------------------|
      E|-----------------------------------------|
      
      
      Final:
      
          Bm      F#m     Em       Gm
      E|--------------------------6---5--2-------|
      B|-------3-------2-----0----3---3--3-------|
      G|-----4---------2-----0----3-3----2-------|
      D|---4---------4-----2---2--5------0-------|
      A|-2---------4-----------------------------|
      E|---------2-------0-----------------------|
      
        Composição: Freddie Mercury / QueenColaboração e revisão:
        • Guilherme
        • Gui

        Comentários 66

        140 .
        • miguelito miguelito: Em 21/07/2016 23:44

          realmente é uma linda musica que marcou muito minha infancia,e sempre quis aprende-la e hoje consegui. obrigado cifraclub!

        • marcos marcos: Em 02/07/2016 09:56

          cifra club e muito bom

        • cassiabuzios cassiabuzios: Em 24/01/2016 00:50

          #RARIDADE#...

        • Vinícius Vinícius: Em 28/09/2015 15:30

          podiam passar as tablaturas da musica inteira, sem precisar abrir o video

        • luiz gustavo luiz gustavo: Em 24/09/2015 12:45

          qual o tom original?

        • Dhierlaine Dhierlaine: Em 13/09/2015 22:45

          o site é maravilhoso, parabens. eu amo muito o cifraclub. mas tinha tradução as musicas, não tem mais?

        • Carlos Henrique Carlos Henrique: Em 18/08/2015 22:18

          tah errado

        • Cesar Augusto Cesar Augusto: Em 28/01/2015 18:40

          *-*

        140 cancelar
        0:00 / 0:00
        1 versão de baixo exibições contribuição e correção
        4 versões de gaita exibições contribuição e correção
        2 versões de partiturasformatodownloadscontribuição
        play/pausefechar subir/descer velocidade
        6ª corda E5ª corda A4ª corda D3ª corda G2ª corda B1ª corda E
          acordes
          publicidade
          fechar
          ok