Enviar cifraEntrar

Crazy Little Thing Called Love

Queen

Cifra: Principal
exibições 285.211
Tom: E
Intro: D D4

Solo:
(1:00)

E|------------------------------------------------13----10-10-----|
B|-5--5--5--5--5--5-------------------------------12----10-10-----|
G|-------------------------------------12-10v---------------------|
D|------------------7--7-5--4--2--0-------------------------------|
A|----------------------------------------------------------------|
E|----------------------------------------------------------------|


E|-/10--10-10-10-10----13--12----10---------------------------|
B|-/10--10-10-10-10------------13--13--12--11p10--------------|
G|-----------------------------------------13p12p1012---------|
D|-------------------------------------------------------12---|
A|------------------------------------------------------------|
E|------------------------------------------------------------|


E|-9/10---10-10---10-10--------------------------------------------15---|
B|-9/10------10---10-10----13b15---b15---15r13p11-13---11---13b15-------|
G|----------------------------------------------------------------------|
D|----------------------------------------------------------------------|
A|----------------------------------------------------------------------|
E|----------------------------------------------------------------------|


E|-9/10---10--10----------------------------10---10---|
B|-9/10-------10-(12)12--10-----------10-13-10---10---|
G|-------------------12----11---10-11-----------------|
D|----------------------------------------------------|
A|----------------------------------------------------|
E|----------------------------------------------------|


E|--------13--------13----------------------------13---|
B|-13b15-----13b15-----15r13p11-13---11----13b15-------|
G|-----------------------------------------------------|
D|-----------------------------------------------------|
A|-----------------------------------------------------|
E|-----------------------------------------------------|


E|-11/12---12------12-----------------------------------------------|
B|-11/12------15------b14-------------------------------------------|
G|--------------------------14-11------14---16b17r16p14-16---14vv---|
D|----------------------------------14------------------------------|
A|------------------------------------------------------------------|
E|------------------------------------------------------------------|


(2:00)

E|-10-10---9/10--10-10----10-----------------------------------------------|
B|-10-10---9/10--10-10----10---------5b7-------8b10---10r8---6-------------|
G|------------------------10-------------7----------------------7v-----7---|
D|------------------------------x---7-------------------------9------9-----|
A|-------------------------------------------------------------------------|
E|-------------------------------------------------------------------------|


E|------------------------------------------/10---10---10-----10--|
B|------------------------------------------/10---10-----10-------|
G|------7h10p7-------------12-10v---------------------------------|
D|----9---------10b12---------------12----------------------------|
A|-10-------------------------------------------------------------|
E|----------------------------------------------------------------|


E|-13--12-10--10-----------------------------------9/10---10---|
B|----------13--13--13-----------------------------9/10---10---|
G|--------------------------12--1012----10b--------------------|
D|------------------------------------12-----12v---------------|
A|-------------------------------------------------------------|
E|-------------------------------------------------------------|


E|-13--13--13--12--12----10------------------------------------------|
B|-13------13--12--12--12--13b15-13b15v------------------------------|
G|------------------------------------------10b---------10b-----10---|
D|----------------------------------------------1210-------12--------|
A|--------------------------------------------------12---------------|
E|-------------------------------------------------------------------|


E|------------------------|
B|------------------------|
G|-12b13r12p1012-----10b--|
D|-----------------12-----|
A|------------------------|
E|------------------------|


E|-----------------------------------------------------------------|
B|---------13--13---------------------------13r12------------------|
G|-13r12p10---------13r12p10-----------10---14r12---1012--10-------|
D|--------------------------12---12-------------------------12--...|
A|-----------------------------------------------------------------|
E|-----------------------------------------------------------------|


D                     D        G           C     G
This thing,  called love, I just  can't  handle it,
D                     D          G        C      G
this, thing,  called love, I must, get round to it,
D                Bb        C      D
I ain't ready, Crazy little thing called love.
    D                D       G            C
This thing, called love, it cries, in craddle at night,
D                      G              C
it swings, it jives, it shakes, all overlike a jelly-fish,
D                Bb        C      D
I kinda like it, Crazy little thing called love.

               G      C                    G
There goes my baby, she knows how to rock and roll,
                Bb             E            A      F
She drives me crazy, she gives me hot and cold fever,

E|-------------------|--------------|
B|-------------------|--------------|
G|-------------------|--------------|
D|-------------------|--------------|
A|-5-4-3-------------|--------------|
E|-----------5-4-3---|-5-53--2--0---|


then she leaves me in a cool, cool sweat.

D                       G          C
I gotta be cool, relax, get hip, get on my tracks,
D                 G
take a back seat, hitch-hike
  C                     G                   D
And take a long ride on my motor bike until I'm ready,
   Bb      C         D
Crazy Little thing called love.

Solo: Bb  D  D  D

           Bb  E  A
E|--------------------|
B|--------------------|
G|--------------------|
D|--------------------|
A|-5-4-3--------------|
E|------------5-4-3---|
  • 1
  • 2
  • 3
  • 4
  • 5
  • 6
  • 7
  • 8
  • 9
  • 10
  • 11
  • 12
    Acordes para:

      0 comentários

        mostrar mais comentários

        Conseguiu tocar?

        40tocaram1ainda não

        Grave um vídeo tocando Crazy Little Thing Called Love e mande pra gente!

        00:00 / 00:00
        outros vídeos desta música
        repetirqualidadeautomática
        • automática
        Outro vídeos desta música
          00:00 / 00:00
          automática
          • automática
          2 versões de Tab de bateriaexibiçõescontribuições
          1 versão de Tab de gaitaexibiçõescontribuições
          4 versões de Guitar Proformatodownloadscontribuição
          fecharplay/pause subir/descer velocidade
            acordes
            fechar
            OK
            Feedback