Cifra Club

I Was Born To Love You

Queen

Cifra: Principal
exibições 57.499
Tom: F#
Gb     Bbm     B
I was born to love you
 bm                Abm7       Db
With every single beat of my heart
 Gb          Bbm     B            Ebm
Yes, I  was born to take care of you
 Abm          Db
Every single day

Gb     Bbm     B    Ebm  B  Ebm
I was born to love you
 Abm               Abm7       Db   ( Db  B  Bb  Ab)
With every single beat of my heart
Gb     Bbm          B       Ebm  B  Ebm
I was born to take care of you
Abm           Db        Gb
Every single day of my life

 Gb
You are the one for me, I am the man for you
 Bbm
You were made for me, you're my ecstacy
B
If I was given every opportunity
                   Abm
I'd kill for your love

[Solo]

E|---------------------------------------------------|
B|-9b11----9-----------------11b13v----11------------|
G|--------------10---------------------------10------|
D|--------------------8--------------------------11--|
A|-----------------------11--------------------------|
E|---------------------------------------------------|
                       Db
So take a chance with me
Let me romance with you
     Bbm
I´m caught in a dream
And my dreams come true
         Ebm
It`s so hard to believe this is
Happening to me
       Ab7                   Db7
An amazing feeling coming through

B9
I wanna love you

E|----13-16-13----13-16----|
B|-16----------16----------|
G|-------------------------|
D|-------------------------|
A|-------------------------|
E|-------------------------|
       Gb
I love every little thing about you
B                            Db
I wanna love you, love you, love you
 Gb
Born to love you
 Db
Born to love you
 Ebm
Yes I was born to love you
 Abm
Born to love you
 Abm7
Born to love you
Db
Every single day (day ..Day, Day) of my life

[Solo]

E|------------------8-------------------------------------11b13-----11--9--11-9-8-9------|
B|--------------------11b13____r11--9-8-9-------------------------------------------11v\-|
G|---------------8------------------------10v__\-----------------------------------------|
D|-~6v-------/10-------------------------------------------------------------------------|
A|---------------------------------------------------------------------------------------|
E|-~4v-----------------------------------------------------------------------------------|

E|-16b18----16------18b20----18----20b21v----|
B|x-------------x-x---------------x----------|
G|--------------x-x--------------------------|
D|-------------------------------------------|
A|-------------------------------------------|
E|-------------------------------------------|

E|-20---18---20---18h20p18\16--18--16h18p16-15--16--15h16p15-----15----------|
B|-----------------------------------------------------------18------18--16\14
G|---------------------------------------------------------------------------|
D|---------------------------------------------------------------------------|
A|---------------------------------------------------------------------------|
E|---------------------------------------------------------------------------|

E|------------------------------------------------------|
B|-\14--16--14h16p14-13--14--13h14p13-11h13p11-9-11b13v-|
G|------------------------------------------------------|
D|------------------------------------------------------|
A|------------------------------------------------------|
E|------------------------------------------------------|

E|-t15p11p8h11-t15p11-t15p11p8h11-t15p11-t15p11p8h11-|
B|---------------------------------------------------|
G|---------------------------------------------------|
D|---------------------------------------------------|
A|---------------------------------------------------|
E|---------------------------------------------------|

E|---------------------------------------------------|
B|-t16p13p8h13-t16p13-t16p13p8h11-t16p13-t16p13p8h13-|
G|---------------------------------------------------|
D|---------------------------------------------------|
A|---------------------------------------------------|
E|---------------------------------------------------|

E|-t16p11p8h11-t15p11p8h11-t14p11p8h11-t15p11p8h11-|
B|-------------------------------------------------|
G|-------------------------------------------------|
D|-------------------------------------------------|
A|-------------------------------------------------|
E|-------------------------------------------------|

E|--------------------------------------------------|
B|-t18p13p8h13-t17p13t15p13-t15p13p8h13-t16p11p8h11-|
G|--------------------------------------------------|
D|--------------------------------------------------|
A|--------------------------------------------------|
E|--------------------------------------------------|

E|-t20p16p13h16-t20p16-t20p16p13h16-------|
B|----------------------------------------|
G|----------------------------------------|
D|----------------------------------------|
A|----------------------------------------|
E|----------------------------------------|

E|-t16p13p8h13-t16p13-t16p13p8h11-t16p13----|
B|------------------------------------------|
G|------------------------------------------|
D|------------------------------------------|
A|------------------------------------------|
E|------------------------------------------|

       Ab7                   Db7
An amazing feeling coming through

Gb     Bbm     B    Ebm  B  Ebm
I was born to love you
 Abm               Abm7       Db   ( Db  B  Bb  Ab)
With every single beat of my heart
Gb     Bbm          B       Ebm  B  Ebm
I was born to take care of you
Abm           Db        Gb
Every single day of my life

Gb     Bbm     B    Ebm  B  Ebm
I was born to love you
Abm           Db        Gb
Every single day of my life

E|----------------------20-25-20-------8----------|
B|-13-------13-18-20-21----------21------9--------|
G|----12-13-------------------------22-----10-----|
D|--------------------------------------------10--|
A|------------------------------------------------|
E|------------------------------------------------|

Go, I love you babe 
Yes, I was born to love you

B9
 I wanna love you , love you, love you 
         Gb
I wanna love you 

B9
I get so lonely, lonely, lonely, lonely 
      Gb
Yeah, I want to love you
Yeah, give it to me
Acordes para:
    Composição: Freddie MercuryColaboração e revisão:
    • Marcos Paulo
    • Marcelo Colleoni
    • Taino Vieira

    0 comentários

      mostrar mais comentários

      Conseguiu tocar?

      2tocaram1ainda não

      Grave um vídeo tocando I Was Born To Love You e mande pra gente!

      00:00 / 00:00
      outros vídeos desta música
      repetirqualidadeautomática
      Outro vídeos desta música
        00:00 / 00:00
        automática
        OK