Cifra Club

Porque Estás Comigo

Diante do Trono 15

Cifra: Principal
exibições 36.842
Tom: D
Intro: Bm G D/F# A/C#

Bm
Mil cairão ao meu lado
Bm
Dez mil à minha direita
A/C#
Mas eu não serei atingido
Bm
Diz o Senhor

                G
Porque estás comigo
A               Bm
Porque estás comigo
D               G
Porque estás comigo
A          Bm
Eu não temerei (2x)

( Bm G D/F# A/C# )

Bm                      G    A
Se me permites passar pelo fogo
Bm                      G   A
Tua promessa é que a chama não arderá
Bm                                 G
Se me permites passar pelas muitas águas
      A           Bm
Elas não me afogarão

                G
Porque estás comigo
A               Bm
Porque estás comigo
D               G
Porque estás comigo
A          Bm
Eu não temerei

Bm
Vou passar pelo fogo
E não vou me queimar
Bm
Vou passar pelas águas
Não vou me afogar
Bm
Vou saltar as muralhas
Eu vou conquistar
G           A
Vou correr, vou voar, vencer

C#m
Vou passar pelo fogo
E não vou me queimar
C#m
Vou passar pelas águas
Não vou me afogar
C#m
Vou saltar as muralhas
Eu vou conquistar
A           B
Vou correr, vou voar, vencer
                               C#m  E
Vou vencer, vou vencer, vou vencer
                A
Porque estás comigo
B              C#m
Porque estás comigo
E               A
Porque estás comigo
B          C#m
Eu não temerei (x)

( C#m A E/G# B/D# )

Tablatura guitarra 1
Intro:
E|--------14----12-10-----------14----12-10-----------14-----12-10-------------------------------------|
B|--12-12----12-----------12-12----12-----------10-10----10-----------14/15--14/15--14/15--10-12-------|
G|-----------------------------------------------------------------------------------------------------|
D|-----------------------------------------------------------------------------------------------------|
A|-----------------------------------------------------------------------------------------------------|
E|-----------------------------------------------------------------------------------------------------|

Coro:
E|--15-14----------------------------------------------------------------------------------------------|
B|--------15-10----------12-14-15-14-15----------------------------------------------------------------|
G|-----------------------------------------------------------------------------------------------------|
D|-----------------------------------------------------------------------------------------------------|
A|-----------------------------------------------------------------------------------------------------|
E|-----------------------------------------------------------------------------------------------------|

Fim:
E|--------16----14-12-----------16----14-12-----------16-----14-12-------------------------------------|
B|--14-14----14-----------14-14----14-----------12-12----12-----------16/17--16/17--16/17--12-14-------|
G|-----------------------------------------------------------------------------------------------------|
D|-----------------------------------------------------------------------------------------------------|
A|-----------------------------------------------------------------------------------------------------|
E|-----------------------------------------------------------------------------------------------------|
Acordes para:
    Colaboração e revisão:
    • innil
    • Alexandre Ramos
    • Aminadab Botelho

    0 comentários

      mostrar mais comentários

      Conseguiu tocar?

      5tocaram0ainda não

      Grave um vídeo tocando Porque Estás Comigo e mande pra gente!

      00:00 / 00:00
      outros vídeos desta música
      repetirqualidadeautomática
      Outro vídeos desta música
        00:00 / 00:00
        automática
        OK