Cifra Club

Give Me Love

Ed Sheeran

Cifra: Principal (violão e guitarra)
exibições 1.020.376
Tom: Bbm (forma dos acordes no tom de Am) Capotraste na 1ª casa
Riff Primeira Parte:
E|----------------------------------------------------|
B|----------------------------------------------------|
G|----------------------------------------------------|
D|----------------------------------------------------|
A|-3--------------------------------------------------|
E|---3-4----------------------------------------------|

Am              F/C          C
   Give me love     like her
Am
   'Cause lately I've been
 F/C            C
Waking up alone
Am
   Pain splattered
 F/C              C
Teardrops on my shirt
Am               F/C        C
   Told you I'd let them go

Pré-refrão:
          Dm
And I'll fight my corner
       F/C
Maybe tonight I'll call ya
           C                   G/B
After my blood turns into alcohol
   Dm                 F/C
No I just wanna hold ya

Refrão:
C                Dm      F/C
  Give a little time to me
                C
We'll burn this out
            Dm       F/C
We'll play hide and seek
               C
To turn this around
       Dm          F/C
All I want is the taste

That your lips allow
Am        G     F/C
   My my,   my my, oh give me love

(Riff Refrão)
My my, my my, oh give me love
My my, my my, give me love

Riff Refrão:
E|----------------------------------------------------|
B|----------------------------------------------------|
G|----------------------------------------------------|
D|----------------------------------------------------|
A|-0-0-0-------3-3-3-3-3-3----------------------------|
E|-------1-1-1----------------------------------------|

E|----------------------------------------------------|
B|----------------------------------------------------|
G|----------------------------------------------------|
D|----------------------------------------------------|
A|-0-0-0-------3--------------------------------------|
E|-------1-1-1----------------------------------------|

Segunda Parte:
Am               F/C          C
   Give me love like never before
Am
   'Cause lately I've been
  F/C        C
Craving more
Am                        F/C
   And it's been a while but
                  C
I still feel the same
Am                 F/C       C
   Maybe I should let you go

Pré-refrão:
               Dm
You know I'll fight my corner

            F/C
And that tonight I'll call ya
           C                        G/B
After my blood, is drowning in alcohol
   Dm                 F/C
No I just wanna hold ya

Refrão:
C                Dm      F/C
  Give a little time to me
                C
We'll burn this out
            Dm       F/C
We'll play hide and seek
               C
To turn this around
       Dm          F/C
All I want is the taste

That your lips allow
Am        G     F/C
   My my,   my my, oh give me love

C                Dm      F/C
  Give a little time to me
                C
We'll burn this out
            Dm       F/C
We'll play hide and seek
               C
To turn this around
       Dm          F/C
All I want is the taste

That your lips allow
Am        G     F/C
   My my,   my my, oh give me love

My my, my my oh give me love

My my, my my give me love

Final:
My my, my my, my my, oh give me love
My my, my my, my my, oh give me love
My my, my my, my my, oh give me love
My my, my my, my my, oh give me love

Am            F/C
   My my, my my, oh give me love
C
  My my, my my, oh give me love
Am            F/C
   My my, my my, oh give me love
C
  My my, my my, oh give me love

Riff Final:
E|----------------------------------------------------|
B|-0h1-1-1--0h1-1-1--0h1-1-1--0-0-0-------------------|
G|-0h2-2-2--0h2-2-2--0h2-2-2--0-0-0-------------------|
D|----------------------------------------------------|
A|----------------------------------------------------|
E|----------------------------------------------------|

E|----------------------------------------------------|
B|-0h1-1-1--0h1-1-1--0h1-1-1--------------------------|
G|-0h2-2-2--0h2-2-2--0h2-2-2--2-2-4-------------------|
D|----------------------------3-3-5-------------------|
A|----------------------------------------------------|
E|----------------------------------------------------|

0 comentários

mostrar mais comentários

Conseguiu tocar?

243tocaram8ainda não

Grave um vídeo tocando Give Me Love e mande pra gente!

00:00 / 00:00
outros vídeos desta música
repetirqualidadeAutomático
Outro vídeos desta música
    00:00 / 00:00
    Capítulos
    • Tocando a música
    • Dicas iniciais / Equipamentos
    • Acordes da Primeira Parte
    • Tocando Primeira Parte
    • Ensinando Primeira Parte
    • Ensinando Riff Primeira Parte
    • Acordes e Dicas Pré-Refrão
    • Tocando Pré-Refrão
    • Acordes Refrão
    • Tocando Refrão
    • Ensinando Refrão
    • Ensinando Riff Refrão
    • Dicas Repetição - Final
    • Tocando Repetição - Final
    • Ensinando Riff Final
    • Encerramento
    • Ficha técnica
    OK