Cifra Club

Danzas Espaolas Op 37 No 2 - Oriental

Enrique Granados

Cifra: Principal (violão e guitarra)
Selo Cifra Club: esta cifra foi revisada para atender aos critérios oficiais da nossa Equipe de Qualidade.
tom: Cm
E|--------------------|--------------------|--------------------|
B|--------------------|--------------------|--8-----4-----8-----|
G|--------------------|--------------------| o-8-----5-----8-----|
D|--------------------|--------------------| o-------------------|
A|--------------------|--------------------|--------------------|
E|--------------------|--------------------|--------------------|
                     |                    |                    |
         |     |     |  |     |     |     |  |     |     |     |
E|--------------------|--------------------|--------------------|
B|--------------------|--------------------|--------------------|
G|-----------0--------|-----------0--------| o----------0--------|
D|-----0--1-----1--0--|-----0--1-----1--0--| o----0--1-----1--0--|
A|--3-----------------|--3-----------------|--3-----------------|
E|--------------------|--------------------|--------------------|

E|--------------------|--------------------|--------6tr=======46|
B|--------6-----4-----|--6-----6--4--3-----|--------------------|
G|--------6-----5-----|--7-----7--5--3-----|--------7-----------|
D|--------------------|--------------------|--------------------|
A|--------------------|--------------------|--------------------|
E|--------------------|--------------------|--------------------|
                     |                    |                    |
   |     |     |     |  |     |     |     |  |     |     |     |
E|--------------------|--------------------|--------------------|
B|--------------------|--------------------|--------------------|
G|-----------------0--|-----------3--------|-----------3--------|
D|-----0-----0--1-----|-----0--3-----3--0--|-----0--3-----3-----|
A|--3-----3-----------|--3-----------------|--3--------------1--|
E|--------------------|--------------------|--------------------|

E|--------------------|--------------------|--------------------|
B|--1-----4-----3-----|--1-----3-----------|--------------------|
G|--1-----5-----3-----|--1-----3-----3-----|--0=================|
D|--------------------|--------------0-----|--1=================|
A|--------------------|--------------------|--------------------|
E|--------------------|--------------------|--------------------|
                     |                    |                    |
   |     |     |     |  |     |     |     |  |     |     |     |
E|--------------------|--------------------|--------------------|
B|--------------------|--------------------|--------------------|
G|-----------------0--|--1--3--1--3--------|-----------0--------|
D|-----------1--3-----|--------------------|-----0--1-----1--0--|
A|-----1--3-----------|--------------------|--3-----------------|
E|--4-----------------|--------------4--6--|--------------------|

E|--------------------|--------------------|--------------------|
B|--------------------|--------------------|--------3-----------|
G|=(0)===============o| o-------------1-----|--4-----------------|
D|=(1)===============o| o-3--5--3--5--3-----|--5-----3-----------|
A|--------------------|--5--6--5--6--------|--------------------|
E|--------------------|--------------------|--------------------|
                     |                    |                    |
   |     |     |     |  |     |     |     |  |     |     |     |
E|--------------------|--------------------|--------------------|
B|--------------------|--------------------|--------------------|
G|-----------0-------o| o-------------------|--------------------|
D|-----0--1-----1--0-o| o----------------1--|-----------------1--|
A|--3-----------------|--------------------|--5--3--2-----------|
E|--------------------|--6--4--6--4--1-----|-----------4--1-----|

E|--------------------|--------------------|--------------------|
B|--------------------|--------------------|--8-----4-----8-----|
G|--------------------|-------------------o|--8-----5-----8-----|
D|--0=================| =(0)===============o|--------------------|
A|--1=================| =(1)================|--------------------|
E|--------------------|--------------------|--------------------|
                     |                    |                    |
   |     |     |     |  |     |     |     |  |     |     |     |
E|--------------------|--------------------|--------------------|
B|-----------------1--|--3--4--6--4--3--4--|--------------------|
G|--------------0-----|-------------------o|-----------0--------|
D|-----------1--------|-------------------o|-----0--1-----1--0--|
A|--5--3--5-----------|--------------------|--3-----------------|
E|--------------------|--------------------|--------------------|

E|--------------------|--------------------|--------6tr=======46|
B|--------6-----4-----|--6-----6--4--3-----|--------------------|
G|--------7-----5-----|--7-----7--5--3-----|--------7-----------|
D|--------------------|--------------------|--------------------|
A|--------------------|--------------------|--------------------|
E|--------------------|--------------------|--------------------|
                     |                    |                    |
   |     |     |     |  |     |     |     |  |     |     |     |
E|--------------------|--------------------|--------------------|
B|--------------------|--------------------|--------------------|
G|-----------------0--|-----------3--------|-----------3--------|
D|-----0-----0--1-----|-----0--3-----3--0--|-----0--3-----3-----|
A|--3-----3-----------|--3-----------------|--3--------------1--|
E|--------------------|--------------------|--------------------|

E|--------------------|--------------------|--------------------|
B|--1-----4-----3-----|--1-----3-----------|--------------------|
G|--1-----5-----3-----|--1-----3-----3-----|--0=================|
D|--------------------|--------------0-----|--1=================|
A|--------------------|--------------------|--------------------|
E|--------------------|--------------------|--------------------|
                     |                    |                    |
   |     |     |     |  |     |     |     |  |     |     |     |
E|--------------------|--------------------|--------------------|
B|--------------------|--------------------|--------------------|
G|-----------------0--|--1--3--1--3--------|-----------0--------|
D|-----------1--3-----|--------------------|-----0--1-----1--0--|
A|-----1--3-----------|--------------------|--3-----------------|
E|--4-----------------|--------------4--6--|--------------------|

E|--------------------|--------------------|--------------------|
B|--------------------|--3-----3--4--3--4--|--1-----1-----------|
G|=(0)================|--------------------|-----------1--0-----|
D|=(1)================|--------------------|--------------------|
A|--------------------|--------------------|--------------------|
E|--------------------|--------------------|--------------------|
                     |                    |                    |
   |     |     |     |  |     |     |     |  |     |     |     |
E|--------------------|--------------------|--------------------|
B|--------------------|--------------------|--------------------|
G|-----------0--------|--------------------|--------------------|
D|-----0--1-----1-----|--3=================|--1=================|
A|--3--------------1--|--2=================|--3=================|
E|--------------------|--3=================|--3=================|

E|--------------------|--------------------|--------------------|
B|--3-----3--4--3--4--|--1=================|--3-----3--4--3--4--|
G|--------------------|--------------------|--------------------|
D|--------------------|--------------------|--------------------|
A|--------------------|--------------------|--------------------|
E|--------------------|--------------------|--------------------|
                     |                    |                    |
   |     |     |     |  |     |     |     |  |     |     |     |
E|--------------------|--------------------|--------------------|
B|--------------------|--------------------|--------------------|
G|--------------------|--0=================|--------------------|
D|--3=================|--1=================|--3=================|
A|--2=================|--3=================|--2=================|
E|--3=================|--------------------|--------------------|

E|--------------------|--------------------|--------------------|
B|--1-----1--3--1--3--|--0---1p0-----------|--3-----3--4--3--4--|
G|--------------------|-----------2--0-----|--------------------|
D|--------------------|--------------------|--------------------|
A|--------------------|--------------------|--------------------|
E|--------------------|--------------------|--------------------|
                     |                    |                    |
   |     |     |     |  |     |     |     |  |     |     |     |
E|--------------------|--------------------|--------------------|
B|--------------------|--------------------|--------------------|
G|--1=================|--------------------|--------------------|
D|--3=================|--0=================|--3=================|
A|--------------------|--------------------|--2=================|
E|--------------------|--3=================|--3=================|

E|--------------------|--------------------|--------------------|
B|--1-----------------|--------------------|--------------------|
G|--------------------|--0-----------0-----|--------------------|
D|--------------------|--1-----1-----1-----|--------3-----1-----|
A|--------------------|--------3-----------|--------5-----3-----|
E|--------------------|--------------------|--------------------|
                     |                    |                    |
   |     |     |     |  |     |     |     |  |     |     |     |
E|--------------------|-----------3--------|--------1--------3--|
B|--------------------|--1--3--4-----4--3--|--1--3-----3--4-----|
G|--0=================|--------------------|--------------------|
D|--1=================|--------------------|--------------------|
A|--3=================|--------------------|--------------------|
E|--------------------|--------------------|--------------------|

E|--------------------|--------------------|--------------------|
B|--3-----3--1--0-----|--------------------|--------------------|
G|--5-----5--3--1-----|--------3tr=======13|--------------------|
D|--------------------|--------------------|--------0-----------|
A|--------------------|--------5-----------|--3-----1-----1-----|
E|--------------------|--------------------|--4-----------------|
                     |                    |                    |
   |     |     |     |  |     |     |     |  |     |     |     |
E|-----------6--------|-----------6--------|--------------1--3--|
B|--------6-----6-----|--------6-----6-----|--------1--4--------|
G|--5--7-----------7--|--5--7-----------3--|--1--3--------------|
D|--------------------|--------------------|--------------------|
A|--------------------|--------------------|--------------------|
E|--------------------|--------------------|--------------------|

E|--------------------|--------------------|--------------------|
B|--------------------|--------------------|--------------------|
G|--------------------|--------------------|--------------------|
D|--------------------|--------------------|-------<1>13-<0>12--|
A|--------------------|--------------------|-<3>15--------------|
E|--3=================| =(3)================|--------------------|
                     |                    |                    |
   |     |     |     |  |     |     |     |  |     |     |     |
E|--------------------|--------------------|--------------------|
B|--4--6--4--6--------|--1--3--1--3--1-----|--------------------|
G|--------------------|-----------------3--|--------------------|
D|--------------1--3--|--------------------|--------------------|
A|--------------------|--------------------|--------------------|
E|--------------------|--------------------|-<1>13==============|

E|--------------------|--------------------|--3=================|
B|--------------------|--------------------|--4=================|
G|--------------------|--------------------|--0=================|
D|-------<0>12--------|--------------------|--------------------|
A|-<3>15--------<1>13-|--------------------|--3=================|
E|--------------------|--------------------|--------------------|
                     |                    |                    |
   |     |     |     |  |     |     |     |  |     |     |     |
E|--------------------|--------------------|--------------------|
B|--------------------|--------------------|--------------------|
G|--------------------|--------------------|--------------------|
D|--------------------|--1=================|--------------------|
A|--------------------|--3=================|--------------------|
E|-<1>13==============|--3=================|--------------------|

E|--------------------------|--11-----11-10111311--10--|
B|--------------------------|--------------------------|
G|--------------------------|--------------------------|
D|--------------------------|--------------------------|
A|--------------------------|--------------------------|
E|--------------------------|--------------------------|
                           |                          |
   |       |       |       |  |       |       |       |
E|--------------------------|--------------------------|
B|------4---4---4---4---4---|------4---4---4---4-------|
G|------5---5---5---5---5---|------5---5---5-----------|
D|----5---5---5---5---5---5-|----5---5---5---5---6-----|
A|--3-----------------------|--3-----------------------|
E|--------------------------|--------------------------|

E|--6------46===============|--4---8--68---78108---7---|
B|--------------------------|--------------------------|
G|--------------------------|--------------------------|
D|--------------------------|--------------------------|
A|--------------------------|--------------------------|
E|--------------------------|--------------------------|
                           |                          |
   |       |       |       |  |       |       |       |
E|--------------------------|--------------------------|
B|------3---3---3---3---3---|------1---1---1---1---1---|
G|------3---3---3---3---3---|------1---1---1---1---1---|
D|----5---5---5---3---5-----|----3---3---3---1---3---0-|
A|--3---------------------6-|--3-----------------------|
E|--------------------------|--------------------------|

E|--------------------------| 15===================----810|
B|--------------------------|---------------------1012---|
G|--12------12==============| 12===================-------|
D|--------------------------|----------------------------|
A|--------------------------|----------------------------|
E|--------------------------|----------------------------|
                           |                            |
   |       |       |       ||       |       |           |
E|--------------------------|----1---1---1---1-----1-----|
B|------1---1---1---1---1---|----3---1---0---0-----------|
G|------0---0---0---0---0---|--0---0---0---0----0-----0--|
D|----1---1---1---0---1-----|----------------------------|
A|--3---------------------3-|----------------------------|
E|--------------------------| 3---------------------------|

E|8=========================| 15-----15-----14151715--14--|
B|--------------------------|----------------------------|
G|--------------------------|----------------------------|
D|--------------------------|----------------------------|
A|--------------------------|----------------------------|
E|--------------------------|----------------------------|
                           |                            |
   |       |       |       ||       |           |       |
E|--------------------------|----------------------------|
B|------4---4---4---4---4---|----4---4---4-------4---4---|
G|------5---5---5---5---5---|----5---5---5-------5-3-5---|
D|----5---5---5---5---5---5-|--5---5---5-----5---------6-|
A|--3-----------------------| 3---------------------------|
E|--------------------------|----------------------------|

E|-10------810--------------| 11-----11---11-14-1114--10--|
B|--------------------------|----------------------------|
G|--------------------------|----------------------------|
D|--------------------------|----------------------------|
A|--------------------------|----------------------------|
E|--------------------------|----------------------------|
                           |                            |
   |       |       |       ||       |           |       |
E|--------------------------|----------------------------|
B|------3---3---3---3---3---|----4---4---4-------4---4---|
G|------2---2---2---2---2---|----5---5---5-------5---5---|
D|----4---4---4---4---2---4-|--5---5---5-----5-----5---5-|
A|--3-----------------------| 3---------------------------|
E|--------------------------|----------------------------|

E|13-----12--8-8-1211-12--11--|--7-----3-------------7-8-10|
B|----------------------------|--------------------10------|
G|----------------------------|----------------------------|
D|----------------------------|----------------------------|
A|----------------------------|----------------------------|
E|----------------------------|----------------------------|
                             |                            |
 |       |           |       |  |     |       |           |
E|----1---3---3-------2---2---|----1---1---1---1---1-------|
B|----1---1---1-----------1---|----3---1---0---0-----------|
G|--1---1---0-----0---2-0---0-|--0---0---0---0---0-----0---|
D|----------------------------|----------------------------|
A|3---------------------------|----------------------------|
E|----------------------------| 3---------------------------|

E|--8=======================|--11-----11-10111311--10--|
B|--------------------------|--------------------------|
G|--------------------------|--------------------------|
D|--------------------------|--------------------------|
A|--------------------------|--------------------------|
E|--------------------------|--------------------------|
                           |                          |
   |       |       |       |  |       |       |       |
E|--------------------------|--------------------------|
B|------4---4---4---4---4---|------4---4---4---4-------|
G|------5---5---5---5---5---|------5---5---5-----------|
D|----5---5---5---5---5---5-|----5---5---5---5---6-----|
A|--3-----------------------|--3-----------------------|
E|--------------------------|--------------------------|

E|--6------46===============|--4---8--68---78108---7---|
B|--------------------------|--------------------------|
G|--------------------------|--------------------------|
D|--------------------------|--------------------------|
A|--------------------------|--------------------------|
E|--------------------------|--------------------------|
                           |                          |
   |       |       |       |  |       |       |       |
E|--------------------------|--------------------------|
B|------3---3---3---3---3---|------1---1---1---1---1---|
G|------3---3---3---3---3---|------1---1---1---1---1---|
D|----5---5---5---3---5-----|----3---3---3---1---3---0-|
A|--3---------------------6-|--3-----------------------|
E|--------------------------|--------------------------|

E|--------------------------| 15===================----810|
B|--------------------------|---------------------1012---|
G|--12------12==============| 12===================-------|
D|--------------------------|----------------------------|
A|--------------------------|----------------------------|
E|--------------------------|----------------------------|
                           |                            |
   |       |       |       ||       |       |           |
E|--------------------------|----1---1---1---1-----1-----|
B|------1---1---1---1---1---|----3---1---0---0-----------|
G|------0---0---0---0---0---|--0---0---0---0----0-----0--|
D|----1---1---1---0---1-----|----------------------------|
A|--3---------------------3-|----------------------------|
E|--------------------------| 3---------------------------|

|-8=======================|
E|-------------------------|
B|-------------------------|
G|-------------------------|
D|-------------------------|
A|-------------------------|
                          |
  |       |       |       |
E|-------------------------|
B|-----4---4---4---4---4---|
G|-----5---5---5---5---5---|
D|---5---5---5---5---5---5-|
A|-3-----------------------|
E|-------------------------|

E|--------------------|--------------------|--------------------|
B|--------------------|--------------------|--8-----4-----8-----|
G|--------------------|--------------------|--8-----5-----8-----|
D|--------------------|--------------------|--------------------|
A|--------------------|--------------------|--------------------|
E|--------------------|--------------------|--------------------|
                     |                    |                    |
         |     |     |  |     |     |     |  |     |     |     |
E|--------------------|--------------------|--------------------|
B|--------------------|--------------------|--------------------|
G|-----------0--------|-----------0--------|-----------0--------|
D|-----0--1-----1--0--|-----0--1-----1--0--|-----0--1-----1--0--|
A|--3-----------------|--3-----------------|--3-----------------|
E|--------------------|--------------------|--------------------|

E|--------------------|--------------------|--------6tr=======46|
B|--------6-----4-----|--6-----6--4--3-----|--------------------|
G|--------6-----5-----|--7-----7--5--3-----|--------7-----------|
D|--------------------|--------------------|--------------------|
A|--------------------|--------------------|--------------------|
E|--------------------|--------------------|--------------------|
                     |                    |                    |
   |     |     |     |  |     |     |     |  |     |     |     |
E|--------------------|--------------------|--------------------|
B|--------------------|--------------------|--------------------|
G|-----------------0--|-----------3--------|-----------3--------|
D|-----0-----0--1-----|-----0--3-----3--0--|-----0--3-----3-----|
A|--3-----3-----------|--3-----------------|--3--------------1--|
E|--------------------|--------------------|--------------------|

E|--------------------|--------------------|--------------------|
B|--1-----4-----3-----|--1-----3-----------|--------------------|
G|--1-----5-----3-----|--1-----3-----3-----|--0=================|
D|--------------------|--------------0-----|--1=================|
A|--------------------|--------------------|--------------------|
E|--------------------|--------------------|--------------------|
                     |                    |                    |
   |     |     |     |  |     |     |     |  |     |     |     |
E|--------------------|--------------------|--------------------|
B|--------------------|--------------------|--------------------|
G|-----------------0--|--1--3--1--3--------|-----------0--------|
D|-----------1--3-----|--------------------|-----0--1-----1--0--|
A|-----1--3-----------|--------------------|--3-----------------|
E|--4-----------------|--------------4--6--|--------------------|

E|--------------------|--------------------|--------------------|
B|--------------------|--------------------|--------3-----------|
G|=(0)================| o-------------1-----|--4-----------------|
D|=(1)================| o-3--5--3--5--3-----|--5-----3-----------|
A|--------------------|--5--6--5--6--------|--------------------|
E|--------------------|--------------------|--------------------|
                     |                    |                    |
   |     |     |     |  |     |     |     |  |     |     |     |
E|--------------------|--------------------|--------------------|
B|--------------------|--------------------|--------------------|
G|-----------0--------| o-------------------|--------------------|
D|-----0--1-----1--0--| o----------------1--|-----------------1--|
A|--3-----------------|--------------------|--5--3--2-----------|
E|--------------------|--6--4--6--4--1-----|-----------4--1-----|

E|--------------------|--------------------|--------------------|
B|--------------------|--------------------|--8-----4-----8-----|
G|--------------------|-------------------o|--8-----5-----8-----|
D|--0=================| =(0)===============o|--------------------|
A|--1=================| =(1)================|--------------------|
E|--------------------|--------------------|--------------------|
                     |                    |                    |
   |     |     |     |  |     |     |     |  |     |     |     |
E|--------------------|--------------------|--------------------|
B|-----------------1--|--3--4--6--4--3--4--|--------------------|
G|--------------0-----|-------------------o|-----------0--------|
D|-----------1--------|-------------------o|-----0--1-----1--0--|
A|--5--3--5-----------|--------------------|--3-----------------|
E|--------------------|--------------------|--------------------|

E|--------------------|--------------------|--------6tr=======46|
B|--------6-----4-----|--6-----6--4--3-----|--------------------|
G|--------7-----5-----|--7-----7--5--3-----|--------7-----------|
D|--------------------|--------------------|--------------------|
A|--------------------|--------------------|--------------------|
E|--------------------|--------------------|--------------------|
                     |                    |                    |
   |     |     |     |  |     |     |     |  |     |     |     |
E|--------------------|--------------------|--------------------|
B|--------------------|--------------------|--------------------|
G|-----------------0--|-----------3--------|-----------3--------|
D|-----0-----0--1-----|-----0--3-----3--0--|-----0--3-----3-----|
A|--3-----3-----------|--3-----------------|--3--------------1--|
E|--------------------|--------------------|--------------------|

E|--------------------|--------------------|--------------------|
B|--1-----4-----3-----|--1-----3-----------|--------------------|
G|--1-----5-----3-----|--1-----3-----3-----|--0=================|
D|--------------------|--------------0-----|--1=================|
A|--------------------|--------------------|--------------------|
E|--------------------|--------------------|--------------------|
                     |                    |                    |
   |     |     |     |  |     |     |     |  |     |     |     |
E|--------------------|--------------------|--------------------|
B|--------------------|--------------------|--------------------|
G|-----------------0--|--1--3--1--3--------|-----------0--------|
D|-----------1--3-----|--------------------|-----0--1-----1--0--|
A|-----1--3-----------|--------------------|--3-----------------|
E|--4-----------------|--------------4--6--|--------------------|

E|--------------------|--------------------|--------------------|
B|--------------------|--3-----3--4--3--4--|--1-----1-----------|
G|=(0)================|--------------------|-----------1--0-----|
D|=(1)================|--------------------|--------------------|
A|--------------------|--------------------|--------------------|
E|--------------------|--------------------|--------------------|
                     |                    |                    |
   |     |     |     |  |     |     |     |  |     |     |     |
E|--------------------|--------------------|--------------------|
B|--------------------|--------------------|--------------------|
G|-----------0--------|--------------------|--------------------|
D|-----0--1-----1-----|--3=================|--1=================|
A|--3--------------1--|--2=================|--3=================|
E|--------------------|--3=================|--3=================|

E|--------------------|--------------------|--------------------|
B|--3-----3--4--3--4--|--1=================|--3-----3--4--3--4--|
G|--------------------|--------------------|--------------------|
D|--------------------|--------------------|--------------------|
A|--------------------|--------------------|--------------------|
E|--------------------|--------------------|--------------------|
                     |                    |                    |
   |     |     |     |  |     |     |     |  |     |     |     |
E|--------------------|--------------------|--------------------|
B|--------------------|--------------------|--------------------|
G|--------------------|--0=================|--------------------|
D|--3=================|--1=================|--3=================|
A|--2=================|--3=================|--2=================|
E|--3=================|--------------------|--------------------|

E|--------------------|--------------------|--------------------|
B|--1-----1--3--1--3--|--0---1p0-----------|--3-----3--4--3--4--|
G|--------------------|-----------2--0-----|--------------------|
D|--------------------|--------------------|--------------------|
A|--------------------|--------------------|--------------------|
E|--------------------|--------------------|--------------------|
                     |                    |                    |
   |     |     |     |  |     |     |     |  |     |     |     |
E|--------------------|--------------------|--------------------|
B|--------------------|--------------------|--------------------|
G|--1=================|--------------------|--------------------|
D|--3=================|--0=================|--3=================|
A|--------------------|--------------------|--2=================|
E|--------------------|--3=================|--3=================|

E|--------------------|--------------------|--------------------|
B|--1-----------------|--------------------|--------------------|
G|--------------------|--0-----------0-----|--------------------|
D|--------------------|--1-----1-----1-----|--------3-----1-----|
A|--------------------|--------3-----------|--------5-----3-----|
E|--------------------|--------------------|--------------------|
                     |                    |                    |
   |     |     |     |  |     |     |     |  |     |     |     |
E|--------------------|-----------3--------|--------1--------3--|
B|--------------------|--1--3--4-----4--3--|--1--3-----3--4-----|
G|--0=================|--------------------|--------------------|
D|--1=================|--------------------|--------------------|
A|--3=================|--------------------|--------------------|
E|--------------------|--------------------|--------------------|

E|--------------------|--------------------|--------------------|
B|--3-----3--1--0-----|--------------------|--------------------|
G|--5-----5--3--1-----|--------3tr=======13|--------------------|
D|--------------------|--------------------|--------0-----------|
A|--------------------|--------5-----------|--3-----1-----1-----|
E|--------------------|--------------------|--4-----------------|
                     |                    |                    |
   |     |     |     |  |     |     |     |  |     |     |     |
E|-----------6--------|-----------6--------|--------------1--3--|
B|--------6-----6-----|--------6-----6-----|--------1--4--------|
G|--5--7-----------7--|--5--7-----------3--|--1--3--------------|
D|--------------------|--------------------|--------------------|
A|--------------------|--------------------|--------------------|
E|--------------------|--------------------|--------------------|

E|--------------------|--------------------|--------------------|
B|--------------------|--------------------|--------------------|
G|--------------------|--------------------|--------------------|
D|--------------------|--------------------|-------<1>13-<0>12--|
A|--------------------|--------------------|-<3>15--------------|
E|--3=================| =(3)================|--------------------|
                     |                    |                    |
   |     |     |     |  |     |     |     |  |     |     |     |
E|--------------------|--------------------|--------------------|
B|--4--6--4--6--------|--1--3--1--3--1-----|--------------------|
G|--------------------|-----------------3--|--------------------|
D|--------------1--3--|--------------------|--------------------|
A|--------------------|--------------------|--------------------|
E|--------------------|--------------------|-<1>13==============|

E|--------------------|--------------------|--3=================|
B|--------------------|--------------------|--4=================|
G|--------------------|--------------------|--0=================|
D|-------<0>12--------|--------------------|--------------------|
A|-<3>15--------<1>13-|--------------------|--3=================|
E|--------------------|--------------------|--------------------|
                     |                    |                    |
   |     |     |     |  |     |     |     |  |     |     |     |
E|--------------------|--------------------|--------------------|
B|--------------------|--------------------|--------------------|
G|--------------------|--------------------|--------------------|
D|--------------------|--1=================|--------------------|
A|--------------------|--3=================|--------------------|
E|-<1>13==============|--3=================|--------------------|
Outros vídeos desta música
    7 exibições
      • ½ Tom
      • Am
      • Bbm
      • Bm
      • Cm
      • C#m
      • Dm
      • Ebm
      • Em
      • Fm
      • F#m
      • Gm
      • G#m
    • Adicionar à lista

    Afinação da cifra

    Afinador online

      0 comentários

      Ver todos os comentários

      Entre para o Cifra Club PRO

      Tenha acesso a benefícios exclusivos no App e no Site

      • Chega de anúncios

      • Badges exclusivas

      • Mais recursos no app do Afinador

      • Atendimento Prioritário

      • Aumente seu limite de lista

      • Ajude a produzir mais conteúdo

      Cifra Club Pro

      Aproveite o Cifra Club com benefícios exclusivos e sem anúncios
      Cifra Club Pro
      Aproveite o Cifra Club com benefícios exclusivos e sem anúncios
      OK