Cifra Club

Valses Poticos 7 Pieces H147

Enrique Granados

Cifra: Principal (violão e guitarra)
Selo Cifra Club: esta cifra foi revisada para atender aos critérios oficiais da nossa Equipe de Qualidade.
tom: A
E|---5-4---|---2-0-0-|---------------|-----0-5-5p0-------|
B|---2-2---|---2-0---|-5-3--2h=3p2-0-|-2h3---------3-2-0-|
G|-2-2-2-1-|---2-----|-2-------------|-------------------|
D|-2-----2-|-4---0---|---------------|-2-----------------|
A|-0-----0-|-5-------|---------------|-------------------|
E|---------|-5---4---|-2-------------|-----------0-------|

E|---5-4---|---2-0-0-|---------------|-----0-5-5p0-------|---------0-------|
B|---2-2---|---2-0---|-5-3--2h=3p2-0-|-2h3---------3-2-0-|-----------3---0-|
G|-2-2-2-1-|---2-----|-2-------------|-------------------|-------------6---|
D|-2-----2-|-4---0---|---------------|-2-----------------|-2p0-------------|
A|-0-----0-|-5-------|---------------|-------------------|-----4-2---------|
E|---------|-5---4---|-2-------------|-----------0-------|---------0-------|

E|-0-------12p10-9----|-12--------10p9----0-|----0----0----------|
B|---3---0---------12-|----------------12---|-10--------3p2-0----|
G|-----6--------------|----9----9-----------|--------------------|
D|--------------------|------11-------------|------11---------2--|
A|--------------------|--0---------0--------|--0--------0--------|
E|-0--------0---------|---------------------|--------------------|

E|-^5-4p2---2-----|-----------------|---------0-------|-0-------12p10-9----|
B|-^2-----5---3-2-|-0h3-0-----------|-----------3---0-|---3---0---------12-|
G|-^2-------------|-------2-1h2-1---|-------------6---|-----6--------------|
D|-^2-------------|---------0-----4-|-2p0-------------|--------------------|
A|-^0-------------|-----------------|-----4-2---------|--------------------|
E|----------------|-4-------0-------|---------0-------|-0--------0---------|

                                                                    To Coda
E|-12--------10p9----0-|----0----0---------|-^5-4p2---2-----|-----------------| |
B|----------------12---|-10--------3p2-0---|-^2-----5---3-2-|-0h3-0-----------| |
G|----9----9-----------|-------------------|-^2-------------|-------2-1h2-1---| |
D|------11-------------|------11---------2-|-^2-------------|---------0-----4-| |
A|--0---------0--------|--0--------0-------|-^0-------------|-----------------| |
E|---------------------|-------------------|----------------|-4-------0-------| |

E|---^5-4---|---5---7-|-12-0-10-0-7-7---|-0-------------|
B|---^2-5---|---7---5-|-----------7---9-|-----2---0-0---|
G|---^2-4---|---6---7-|-----------7-----|-------------1-|
D|---^2-----|-------6-|-----------------|---2---2-4-----|
A|-0----4-7-|-5-------|--0--------0-----|-0-------0-----|
E|----------|-----0---|-----------------|---------------|

                                             D.S. al Coda
E|---^5-4---|---5---7-|-12-0-10-0-7---7---|-0--------------| |
B|---^2-5---|---7---5-|-----------7-9---9-|-----2---0-0----| |
G|---^2-4---|---6---7-|-----------7-------|-------------1--| |
D|---^2-----|-------6-|-------------------|---2---2-4------| |
A|-0----4-7-|-5-------|--0--------0-------|-0-------0------| |
E|----------|-----0---|-------------------|----------------| |

  &
E|----------------9-12-|---10p7-----------|-----------------|------------------|
B|--------9-10-12------|--------9-7---7---|-----------0-2-5-|---3-0------------|
G|---9-11--------------|------------9---7-|-------1-2-------|-------1----------|
D|---------------------|-0----------------|---2-4-----------|-0-------4-2-4-0--|
A|-0-------------------|------------------|-0---------------|------------------|
E|---------------------|----------0-------|-----------------|---------0--------|

E|-----------------|---0--------7-9-10-|-9----------7-9-12-|
B|-----------0-2-3-|-2---7-9-10--------|-----7-9-10--------|
G|-------1-2-------|-------------------|---9---------------|
D|---2-4-----------|-------------------|-------------------|
A|-0---------------|-0-----------------|-0-----------------|
E|-----------------|-------------------|-------------------|
Outros vídeos desta música
    5 exibições
      • ½ Tom
      • A
      • Bb
      • B
      • C
      • Db
      • D
      • Eb
      • E
      • F
      • F#
      • G
      • Ab
    • Adicionar à lista

    Afinação da cifra

    Afinador online

      0 comentários

      Ver todos os comentários

      Entre para o Cifra Club PRO

      Tenha acesso a benefícios exclusivos no App e no Site

      • Chega de anúncios

      • Mais recursos no app do Afinador

      • Atendimento Prioritário

      • Aumente seu limite de lista

      • Ajude a produzir mais conteúdo

      Cifra Club Pro

      Aproveite o Cifra Club com benefícios exclusivos e sem anúncios
      Cifra Club Pro
      Aproveite o Cifra Club com benefícios exclusivos e sem anúncios
      OK