Cifra Club

He-Man Woman Hater

Extreme

Cifra: Principal (violão e guitarra)
Selo Cifra Club: esta cifra foi revisada para atender aos critérios oficiais da nossa Equipe de Qualidade.
tom: Bm
 Guitar 3
E|---------------------------------------------------------------------------------|
B|---------------------------------------------------------------------------------|
G|---------------------------------------------------------------------------------|
D|--------------------------------------------------------------14-12\11/12\11/12--|
A|--------------------------------------------------------------13-11\10/11\10/11--|
E|---------------------------------------------------------------------------------|

                       1~~~~~~~                      1       1                  1  .
E|-----------------------------------------------------------------------------------------------------|
B|--------12--------15^--------15-12-------------------15----------------------------------------------|
G|--12_14----12----------------------14-12-14-12--14^-----14^--(14)_12-14-12-14^--14-12----------------|
D|--------------14----------------------------------------------------------------------12-12_14-------|
A|-----------------------------------------------------------------------------------------------14----|
E|-----------------------------------------------------------------------------------------------------|

                                  ½  
E|-----------------------------------------------------------|
B|--------15----14----15----14-14^-(14)_12----12-12----------|
G|--12_14----12----12----12----------------14-------14-12----|
D|-----------------------------------------------------------|
A|-----------------------------------------------------------|
E|-----------------------------------------------------------|

E|----------------------------------------------------------------------------------------(0)----------|
B|--------------------------------------------------------------------------------(0)--------12_17_12--|
G|---------------------------------------------------------------------11_16---------11_16-------------|
D|--------------------------------------------17_12-------_17_12-17_12-------12_17---------------------|
A|--------------12_14_12----17_12_17_12-12-17-------17_12----------------------------------------------|
E|--12_17_12-12---------(10)---------------------------------------------------------------------------|

     T        T        T        T            T            T        T        T        T            T
E|--------------------19_12_16-19_12_16------------------------------------19_12_16-19_12_16--------------|
B|-------------------------------------------------------------------------------------------_16-21_16_13-|
G|-----------21_13_16-------------------_16-21_16_13--------------21_16_13--------------------------------|
D|--21_14_16-----------------------------------------_14-21_14_16-----------------------------------------|
A|--------------------------------------------------------------------------------------------------------|
E|--------------------------------------------------------------------------------------------------------|

        T        T        T        T        T            T        T        T        T           T
E|-------------------------------------------------------------------------------------------------------|
B|-----------------------19_12_16-19_12_16--------------------------------19_12_16-19_12_16--------------|
G|-------------------------------------------------------------------------------------------------------|
D|--------------21_13_16-------------------21_16_13--------------21_13_16------------------_16-21_16_13--|
A|-_14-21_14_16-------------------------------------_14-21_14_16-----------------------------------------|
E|-------------------------------------------------------------------------------------------------------|

     T        T        T        T            T        T        T        T        T            T
E|--------------------17_10_14-17_10_14--------------------------------17_10_14-17_10_14---------------|
B|---------------------------------------------------------------------------------------_14-19_14_11--|
G|-----------19_11_14-------------------_14-19_14_11----------19_11_14---------------------------------|
D|--19_12_14-----------------------------------------19_12_14------------------------------------------|
A|-----------------------------------------------------------------------------------------------------|
E|-----------------------------------------------------------------------------------------------------|

        T        T        T        T            T        T        T        T        T 
E|--------------------------------------------------------------------------------------------------|
B|-----------------------17_10_14-17_10_14--------------------------------17_10_14-17_10_14__12_14--|
G|--------------------------------------------------------------------------------------------------|
D|--------------19_11_14-------------------_14-19_14_11----------19_11_14---------------------------|
A|-_12-19_12_14-----------------------------------------19_12_14------------------------------------|
E|--------------------------------------------------------------------------------------------------|

    T              T        T       T       T           T           T        T       T       T 
E|---------------------------------15_8_12-15_8_12----------------------------------15_8_12-15_8_12--|
B|-19_14_12_10_12------------------------------------------------------------------------------------|
G|-------------------------17_9_12-----------------_12-17_12_9--------------17_9_12------------------|
D|----------------17_10_12-------------------------------------_10-17_10_12--------------------------|
A|---------------------------------------------------------------------------------------------------|
E|---------------------------------------------------------------------------------------------------|

         T          T        T       T       T           T       T        T       T       T
E|------------------------------------------------------------------------------------------------|
B|----------------------------------15_8_12-15_8_12------------------------------15_8_12-15_8_12--|
G|--_12-17_12_9_10--------------------------------------------------------------------------------|
D|--------------------------17_9_12-----------------_12-17_12_9----------17_9_12------------------|
A|-----------------17_10_12-------------------------------------17_10_12--------------------------|
E|------------------------------------------------------------------------------------------------|

           1                                                                       AH~~~~
E|------------12------------------------------------------------------------------------|
B|------15^------15_12----12-------12----12----12----12----12---------------------------|
G|--_12----------------15----14-15----16----15----16----15----14_15_14-12_14_12---14----|
D|--------------------------------------------------------------------------------------|
A|--------------------------------------------------------------------------------------|
E|--------------------------------------------------------------------------------------|

                                            ~~~~~~
E|------------------------------------------------|
B|------------------------------------------------|
G|-----12-----------------------------------------|
D|--14----14_12----12-----------------------------|
A|--------------14----14\12------10----10-12------|
E|----------------------------------12------------|



************************************

| x   Dead note
| _   Hammer-on/Pull-off
| T   Tapping
| ^   Bend
|(n)  Bend release or Ghost note
| /   Slide up
| \   Slide down
| ~   Vibrato
| AH  Artificial harmonic
| .   Staccato
Outros vídeos desta música
27 exibições
    • ½ Tom
    • Am
    • Bbm
    • Bm
    • Cm
    • C#m
    • Dm
    • Ebm
    • Em
    • Fm
    • F#m
    • Gm
    • G#m
  • Adicionar à lista

Afinação da cifra

Afinador online

    0 comentários

    Ver todos os comentários

    Entre para o Cifra Club PRO

    Tenha acesso a benefícios exclusivos no App e no Site

    • Chega de anúncios

    • Mais recursos no app do Afinador

    • Atendimento Prioritário

    • Aumente seu limite de lista

    • Ajude a produzir mais conteúdo

    Cifra Club Pro

    Aproveite o Cifra Club com benefícios exclusivos e sem anúncios
    Cifra Club Pro
    Aproveite o Cifra Club com benefícios exclusivos e sem anúncios
    OK