Cifra Club

He-Man Woman Hater

Extreme

Cifra: Principal (violão e guitarra)
Selo Cifra Club: esta cifra foi revisada para atender aos critérios oficiais da nossa Equipe de Qualidade.
tom: Em
eb|21h22-20h21-19h20-18h19-17h18-16h17-15h16-14h15-13h14-12h13-11h12-10h11-9h10-|
B|-----------------------------------------------------------------------------|
G|-----------------------------------------------------------------------------|
D|-----------------------------------------------------------------------------|
A|-----------------------------------------------------------------------------|
E|-----------------------------------------------------------------------------|

eb|8h9-7h8-6h7-5h8-4h7-5h8-4h7-5h8-6h9-5h8-4h7-5h8-4h7-5h8-4h7-5h8-4h7-6h9-5h8-|
B|----------------------------------------------------------------------------|
G|----------------------------------------------------------------------------|
D|----------------------------------------------------------------------------|
A|----------------------------------------------------------------------------|
E|----------------------------------------------------------------------------|

eb|4h7-0h12-0h8-0h12-0h8-7h10-0h7-0h10-0h7-5h8-0h5-0h8-0h5-4h7-0h4-0h7-0h4-|
B|------------------------------------------------------------------------|
G|------------------------------------------------------------------------|
D|------------------------------------------------------------------------|
A|------------------------------------------------------------------------|
E|------------------------------------------------------------------------|

E|5h8-4h7-5h8-4h7-5h8-6h9-5h8-4h7-5h8-4h7-5h8-4h7-5h8-6h9-5h8-4h7----|
B|-------------------------------------------------------------------|
G|-------------------------------------------------------------------|
D|-------------------------------------------------------------------|
A|-------------------------------------------------------------------|
E|-------------------------------------------------------------------|

E|--------------------------------------------------------------------16h19-16h19-16h19-|
B|--------------------------------------------------------------15h18-------------------|
G|------------7h10----------------10h13-------------------13h16-------------------------|
D|--------6h9----------------9h12-------------------12h15-------------------------------|
A|----5h8---------------8h11------------------11h14-------------------------------------|
E|4h7--------------7h10-----------------10h13-------------------------------------------|

eb|17h19-17h21-17h19-17h21-17h22-17h21-17h19-17h21-15h21-15h19-15h21-15h22-15h21-|
B|------------------------------------------------------------------------------|
G|------------------------------------------------------------------------------|
D|------------------------------------------------------------------------------|
A|------------------------------------------------------------------------------|
E|------------------------------------------------------------------------------|

eb|15h22-15h21-15h19-15h17-15h19-14h19-14h21-14h22-14h21-14h19-14h17-14h19-14h19-|
B|------------------------------------------------------------------------------|
G|------------------------------------------------------------------------------|
D|------------------------------------------------------------------------------|
A|------------------------------------------------------------------------------|
E|------------------------------------------------------------------------------|

eb|13h19-13h20-13h19-13h17-13h16-13h17-13h16-13h17-17h21-15h17-12h15-9h12-5h9-3h5-|
B|-------------------------------------------------------------------------------|
G|-------------------------------------------------------------------------------|
D|-------------------------------------------------------------------------------|
A|-------------------------------------------------------------------------------|
E|-------------------------------------------------------------------------------|

eb|0h3-0h5-7p0-4p0-12p0-7p0-16p0-0-0-17p0-16p0-17h21-15h17-12h15-9h12-5h9-3h5-|
B|---------------------------------------------------------------------------|
G|---------------------------------------------------------------------------|
D|---------------------------------------------------------------------------|
A|---------------------------------------------------------------------------|
E|---------------------------------------------------------------------------|

eb|0h3-0h5-4h7-5h9-4h7-5h9-4h7-5h9-4h7-0-0-17h21-15h17-12h15-9h12-5h9-3h5-0h3-|
B|---------------------------------------------------------------------------|
G|---------------------------------------------------------------------------|
D|---------------------------------------------------------------------------|
A|---------------------------------------------------------------------------|
E|---------------------------------------------------------------------------|

eb|0h5-11p10-12p11-13p12-14p13-15p14-16p15-17p16-18p17-17h21-15h17-12h15-9h12-|
B|---------------------------------------------------------------------------|
G|---------------------------------------------------------------------------|
D|---------------------------------------------------------------------------|
A|---------------------------------------------------------------------------|
E|---------------------------------------------------------------------------|

E|5h9-3h5-0h3-0h5-6p0-2p0-6p0-2p0--------------------------------------------|
B|--------------------------------4h5-2h4-0-0-0-0----------------------------|
G|------------------------------------------------16t12p9h12-16t12p9h12------|
D|---------------------------------------------------------------------------|
A|---------------------------------------------------------------------------|
E|---------------------------------------------------------------------------|

E|-----------------------------------------------------------------------------|
B|-----------------------------------------------------------------------------|
Gb|17t12p9h12-17t12p9h12-17t11p8h11-17t11p8h11-16t11p8h11-16t11p8h11-16t10p7h10-|
D|-----------------------------------------------------------------------------|
A|-----------------------------------------------------------------------------|
E|-----------------------------------------------------------------------------|

E|---------------------------------------------------------------------------|
B|---------------------------------------------------------------------------|
G|16t10p7h10-17t10p7h10-16t10p7h10-16t9p6h9-16t9p6h9-14t9p6h9-14t9p6h9-------|
D|---------------------------------------------------------------------------|
A|---------------------------------------------------------------------------|
E|---------------------------------------------------------------------------|

E|---------------------------------------------------------------------------|
B|---------------------------------------------------------------------------|
G|14t8p5h8-14t8p5h8-16t8p5h8-14t8p5h8-14t7p4h7-14t7p4h7-12t7p4h7-12t7p4h7----|
D|---------------------------------------------------------------------------|
A|---------------------------------------------------------------------------|
E|---------------------------------------------------------------------------|

E|---------------------------------------------------------------------------|
B|---------------------------------------------------------------------------|
G|12t6p3h6-12t6p3h6-11t6p3h6-11t6p3h6-11t5p2h5-11t5p2h5-12t5p2h5-11t5p2h5----|
D|---------------------------------------------------------------------------|
A|---------------------------------------------------------------------------|
E|---------------------------------------------------------------------------|

E|---------------------------------------------------------------------------|
B|---------------------------------------------------------------------------|
Gb|11t4p1h4-11t4p1h4-9t4p1h4-9t4p1h4-8t4p1h4-8t4p1h4-9t4p1h4-9t4p1h4-11t3p1h3-|
D|---------------------------------------------------------------------------|
A|---------------------------------------------------------------------------|
E|---------------------------------------------------------------------------|

E|---------------------------------------------------------------------------|
B|---------------------------------------------------------------------------|
Gb|11t3p1h3-9t3p1h3-9t3p1h3-8t3p1h3-8t3p1h3-9t3p1h3-9t3p1h3-9t2p1h2-9t2p1h2---|
D|---------------------------------------------------------------------------|
A|---------------------------------------------------------------------------|
E|---------------------------------------------------------------------------|

E|----------------------------------------------------------------------------|
B|----------------------------------------------------------------------------|
G|8t2p1h2-8t2p1h2-6t2p1h2-6t2p1h2-8t2p1h2-8t2p1-------------------------------|
D|----------------------------------------------------------------------------|
A|-------------------------------------------------------------13t5h8-13t5h8--|
E|-----------------------------------------------12t4h7-12t4h7----------------|

E|-----------------------------------------------18t10h13-18t10h13------------| This hurt my soul
B|-------------------------------17t9h12-17t9h12------------------------------| to tab out
G|---------------15t7h10-15t7h10------------------------------------2--2--2---|
D|14t6h9-14t6h9-----------------------------------------------------2--2--2---|
A|------------------------------------------------------------------0--0--0---|
E|----------------------------------------------------------------------------|

[He-Man Woman Hater]

[Main Riff]

E|------------------------------------------------------------------|
B|------------------------2-------------------------------2-----3---|
G|2----------------| {4}b---2--x--2-----0------------{4}b---2--x--0---|
D|2-----0-----------------2--x--2-------------------------2--x------|
A|0--3h4-4p30----------------x--0--3h4--4p3p0----------------x--3---|
E|-----------4p3p0---------------------------4p3p0------------------|
     PM------------|               PM--------------|


E|--------------------------0---------------------------------0--|
B|3-3--3---3/5------7\5--------3------------------------7\5------|
G|0-2--2-----------------------2----2------2-2-------------------|
D|--0--0-------5/7-(7)\5-------0----0--3-4-----3p0-5/7--7\5------|
A|---------------------------------------------------------------|
E|---------------------------------------------------------------|

[Intro Lead]

eb|---------------------------------------------------------------------------|
Bb|20b---20~~-17-20-17-20-17\15-17-15\13-15-13\12-13-12----12-------17----17b-|
Gb|------------------------------------------------------14----14-14----14----|
D|---------------------------------------------------------------------------|
A|---------------------------------------------------------------------------|
E|---------------------------------------------------------------------------|

E|---------14h17h20p17p14h15-14h15-------------------------------------------|
B|14h17h20-------------------------17p14----14-------------------------------|
G|---------------------------------------17----17p14----17-------------------|
D|---------------------------------------------------17----------------------|
A|---------------------------------------------------------------------------|
E|---------------------------------------------------------------------------|

[Verse]

E|----------------------------------------------------------------------------------|
B|----------------------------------------------------------------------------------|
G|--2-2---2/4-4\2-------2-2-1-2-2/4-4------4-4-4-2-4---7----------------------------|
D|--2-2---2/4-4\2-------2-2-2-2-2/4-4------4-4-4-2-4---7--2-2-----------------------|
A|----------------------------------2--2-2-----2-----5-5--2-2----4h5p4p0------------|
E|2-----2---------0-0-0-----------------------------------0-0--0---------2p0-| {2}~~--|

E|---------------------------------------------------------------------------|
B|--------------------------------------------------------------3--3---------|
G|2-2---2/4-4\2---------2-2-1-2-2-4-------4-4-2-2--4----7-------2--0---------|
D|2-2---2/4-4\2---------2-2-2-2-2-4--4--4-4-4-2-2--4----7----2--0--0---------|
A|-----------------------------------2--2-----2-2--2--5-5--2-2---------------|
E|----2---------0-0-0-0------------------------------------0-0--2--3---------|


[Pre-Chorus]

E|-----------------------------------------------------------------------------------|
B|---------------------------------------3-------------------------------------------|
G|2-2-2-0-0--2--x----------0-0-----------0---2-2-0-0---2---------2----------2---4----|
D|2-2-2-0-0--2--x----------0-0-----------0---2-2-0-0---2------------0----------------|
A|0-0-0------0--x--5-5-5-5-----5-5-5--5------0-0-------------------------------------|
E|------3-3--------2-2-2-2-3-3-2-2-2--3--3-------3-3------0-1--1------1-3-3---3------|

E|--------------------------------------------------------------------------------------|
B|--------------------------------------------------------------------------------------|
G|--2-2-0-0--2--x-----------------------2-2-2-2-0-0---2-------2--------------------5----|
D|--2-2-0-0--2--x--------------4-4------2-2-2-2-0-0---2----------0---------------5---7--|
A|--0-0------0--x--5-5-5-5-5-5-5-5--5-5-0-0-0-0----------------------------3-5/7--------|
E|3-----3-3--------2-2-2-2-3-3-2-2--3-3---------3-3------1--1------1-3-3h5--------------|


[Pre-solo]

E|-----------------------------|
B|-----------------------------|
G|-----------------------------|
D|-----------------------------|
A|2-5-7-2-5-72---5-7-2-5-72----|
E|0-3-5-0-3-50-0-3-5-0-3-50----|
 PM throughout

[G  O]

E|---------------------------------------------------------------------------------|
B|--------------------12--------15b---15-12------------------15--------------------|
G|9\7\6/7\6/7---12h14----12-----------------14-12-14-12-14b-----14b--14p12-14-12---|
D|8\6\5/6\5/6---------------14-----------------------------------------------------|
A|---------------------------------------------------------------------------------|
E|---------------------------------------------------------------------------------|

E|---------------------------------------------------------------------------|
B|------------------------------15----14----15----14-14bp12----12-12---------|
G|14b-14-12---------------12h14----12----12----12-----------14-------14-12---|
D|----------12-12h14---------------------------------------------------------|
A|-------------------14------------------------------------------------------|
E|---------------------------------------------------------------------------|

E|------------------------------------------------------------------0h7h12---|
B|------------------------------------------------0h7h12------0h7h12---------|
G|------------------------------0h7h12------0h7h12------0h7h12---------------|
D|------------0h7h12------0h7h12------0h7h12---------------------------------|
A|------0h7h12------0h7h12---------------------------------------------------|
E|0h7h12---------------------------------------------------------------------|

E|----------------19t12h16-19t12h16------------------------19t12h16-19t12h16---------|
B|-----------------------------------------------------------------------------------|
G|--------21t13h16-----------------21t13h16--------21t13h16-----------------21t13h16-|
D|21t14h16---------------------------------21t14h16----------------------------------|
A|-----------------------------------------------------------------------------------|
E|-----------------------------------------------------------------------------------|

E|------------------------------------------------------------------------------------|
B|----------------19t12h16-19t12h16------------------------19t12h16-19t12h16----------|
G|------------------------------------------------------------------------------------|
D|--------21t13h16-----------------21t13h16--------21t13h16-----------------21t13h16--|
A|21t14h16---------------------------------21t14h16-----------------------------------|
E|------------------------------------------------------------------------------------|

E|----------------17t10h14-17t10h14------------------------17t10h14-17t10h14------------|
B|--------------------------------------------------------------------------------------|
G|--------19t11h14-----------------19t11h14--------19t11h14-----------------19t11h14----|
D|19t12h14---------------------------------19t12h14-------------------------------------|
A|--------------------------------------------------------------------------------------|
E|--------------------------------------------------------------------------------------|

E|-----------------------------------------------------------------------------------------|
B|----------------17t10h14-17t10h14------------------------17t10h12h14-17t14p12p10h12h14---|
G|-----------------------------------------------------------------------------------------|
D|--------19t11h14-----------------19t11h14--------19t11h14--------------------------------|
A|19t12h14---------------------------------19t12h14----------------------------------------|
E|-----------------------------------------------------------------------------------------|

E|---------------15t8h12-15t8h12----------------------15t8h12-51t8h12----------|
B|-----------------------------------------------------------------------------|
G|--------17t9h12---------------17t9h12--------17t9h12---------------17t9h12---|
D|17t10h12-----------------------------17t10h12--------------------------------|
A|-----------------------------------------------------------------------------|
E|-----------------------------------------------------------------------------|

E|---------------------------------------------------------------------------|
B|---------------15t8h12-15t8h12----------------------15t8h12-15t8h12--15b---|
G|---------------------------------------------------------------------------|
D|--------17t9h12---------------17t9h12--------17t9h12-----------------------|
A|17t10h12-----------------------------17t10h12------------------------------|
E|---------------------------------------------------------------------------|

eb|12---------------------------------------------------------------------------|
Bb|---15p12----12-------12----12----12----12----12------------------------------|
Gb|---------14----14-15----16----15----16----15-----14h15p14p12-12h14p12-12~~---|
D|-----------------------------------------------------------------------------|
A|-----------------------------------------------------------------------------|
E|-----------------------------------------------------------------------------|

E|---------------------------------------------------------------------------|
B|---------------------------------------------------------------------------|
Gb|---12----------------------------------------------------------------------|
Db|14----14p12----12----------------------------------------------------------|
Ab|------------14----14p12--10----10~~----------------------------------------|
Eb|----------------------------12---------------------------------------------|

[Post-solo]

E|---------------------------------------------------------------------------|
B|------------------------2--x--------------------------2---0| WB--------------|
G|------------------| {4}b--2--x--2------0----------{4}b--2---0WB----12WB------|
D|-------0----------------2--x--2-----------------------2---0| WB--------------|
A|12~-3h4-4p3p0-----------------0---3h4-4p3p0--------------------------------|
E|-------------4p3p0-------------------------4p3p0---------------------------|
      PM-------------|              PM-------------|

E|--------------------------------------------------------------------------------------|
B|--------------------------------------------------------------------------------------|
G|2-2-2-0-0--2-x-----2-----------2---4------2-2-0-0--2-x-2-------0-0-2--0-x--0-0--2-x---|
D|2-2-2-0-0--2-x-------0-----0--------------2-2-0-0--2-x-0---0-0-0-0-0--0-x--0-0--2-x---|
A|0-0-0------0------------------------------0-0------0----------------------------------|
E|------3-3------1-1-----1-1-3-3---3----0-3-----3-3------2-2-2-2-3-3-2--3----3-3--------|

E|---------------------------------------------------------2-2-2-2-2-2-2-3-3-2--3-------|
B|---------------------------------------------------------3-3-3-3-3-3-3-3-3-3--3-------|
G|--------2--------------------5-------------2-2-2-0-0--2--2-2-2-2-2-2-2-0-0-2--0-------|
D|0-0-0-0-2------------------5---7-5---------2-2-2-0-0--2--0-0-0-0-0-0-0-0-0-0--0-------|
A|---------------------3-5/7---------7-6-5-3-0-0-0------0-------------------------------|
E|3-3-3-3---3-3-1--3/5-----------------------------3-3----------------------------------|

E|---------------------5-------------5---7--x-8-8-8-8--7--7-7-7------------------------|
B|------------------------3-----------------x--------------------10-10-10--------------|
G|0-0-0-2-2-0--2-x---------------------5----x-9-9-9-9--9--9-9-9--9--9--9--9-9-7b--7b---|
D|0-0-0-2-2-0--2-x--3--------3-3-5-5---------------------------------------------------|
A|------0-0----0-x---------------------------------------------------------------------|
E|3-3-3-----3--------------------------------------------------------------------------|
                    Let ring---------------|

E|----------------------------------------------------------------------------------------17-|
B|------------------------------------------------------------------------17p14-----------17-|
G|7p5p4-4h5-0-9p7p5-------9p7p5-9p7p5-----------------2-xx------14h17p14-------17p14------14-|
D|------------------9p7p5-------------9p7p5-------------xx-14h17--------14----------17p14----|
A|------------------------------------------8p7p5--------------------------------------------|
E|------------------------------------------------1-1----------------------------------------|

[Chorus Lead]

E|20-22p17h22p17h22p17--22p17h22p17h22p17--22p17h22p17-22p17-19-20h22p20p17-------------------------17--|
B|--------------------20-----------------20--------------------------------20h22p20p17--17h20p17--17----|
G|------------------------------------------------------------------------------------19--------19------|
D|------------------------------------------------------------------------------------------------------|
A|------------------------------------------------------------------------------------------------------|
E|------------------------------------------------------------------------------------------------------|

E|---------17---------17-----------------------------------------------------|
B|20p17--17--20p17--17--20p17-------22p20-22p18-22p17------------------------|
G|-----19---------19---------19----------------------21p19-17----17-19b------|
D|-----------------------------17/19--------------------------19-------------|
A|---------------------------------------------------------------------------|
E|---------------------------------------------------------------------------|

[Chorus Lead 2]

E|------------------------------------------------------------------------------------------------|
B|-----------------------------------------------------------------------------------x------------|
G|19-17p14-17h19p17p14--14h17-19p17p14h19p14-21p19-----------------------------------x-7b--7b-----|
D|--------------------17---------------------------17/--9h10p9-------7h9p7------9~~---------------|
A|------------------------------------------------------------12p10p9-----10p9p7------------------|
E|------------------------------------------------------------------------------------------------|

[Outro]

E|-------------------------------------------------------------|
B|-------------------------------------------------------------|
G|--------5------------5-------------5-------------------------|
D|----5-----7~-----5-----7~------5-----7~-------5------x-------|
A|5h7---7------5-7---7-------5h7---7------5-6-7--------x-------|
E|------------------------------------------------8-5~---------|

E|---5----5--------5----5----5------x----------------------------------------|
B|5--5-5--5--------5-5--5-5--5------x----------------------------------------|
G|7b---7b---7bp5-----7b---7b---7bp5-x-----------5----------------------------|
D|---------------7-----------------------------5-----7~-------5-----------------|
A|-----------------------------------------5h7---7------5-6-7-------------------|
E|--------------------------------------------------------------8-5~------------|

Progression:
[Flight of the Wounded Bumblebee]

[Main Riff]
[Intro Lead]

[Verse]
[Pre-chorus]
[Main Riff]

[Verse]
[Pre-chorus]
[Main Riff]

[Pre-solo]
[G  O]

[Post-solo]

[Main Riff]
[Chorus Lead]
[Chorus Lead 2]

[Outro]

************************************

| x   Dead note
| g   Grace note
| (n) Ghost note
| h   Hammer-on
| p   Pull-off
| r   Release
| >   Accented note
| t   Tapping
| b   Bend
| br  Bend release
| pb  Pre-bend
| pbr Pre-bend release
| /   Slide up
| \   Slide down
| ~   Vibrato
| s   Slap
| P   Pop
| PM  Palm mute
| TR  Trill
| N   Tremolo
|  Natrual harmonic
| {#} Artificial harmonic
| WB  Whammy bar
Outros vídeos desta música
16 exibições
    • ½ Tom
    • Am
    • Bbm
    • Bm
    • Cm
    • C#m
    • Dm
    • Ebm
    • Em
    • Fm
    • F#m
    • Gm
    • G#m
  • Adicionar à lista

Afinação da cifra

Afinador online

    0 comentários

    Ver todos os comentários

    Entre para o Cifra Club PRO

    Tenha acesso a benefícios exclusivos no App e no Site

    • Chega de anúncios

    • Mais recursos no app do Afinador

    • Atendimento Prioritário

    • Aumente seu limite de lista

    • Ajude a produzir mais conteúdo

    Cifra Club Pro

    Aproveite o Cifra Club com benefícios exclusivos e sem anúncios
    Cifra Club Pro
    Aproveite o Cifra Club com benefícios exclusivos e sem anúncios
    OK