Cifra Club

Aprenda

Breathe

Faith Hill

Cifra: Original-com-dedilhada (violão e guitarra)
Já pensou em usar uma coleção de roupas do Cifra Club? Responda as perguntas abaixo e nos ajude nessa missão! →
tom: G
E|----------------|----------------|----------------|----------------|
B|------1---------|------3---------|------3---------|------3---------|
G|----------0---0-|----------0---0-|----------0---0-|----------0---0-|
D|----2-------2---|----0-------0---|----2-------2---|----0-------0---|
A|0---------------|2---------------|3---------------|2---------------|
E|----------------|----------------|----------------|----------------|

E|----------------|----------------|----------------|0---------------|
B|------1---------|------3---------|------3---------|3---------------|
G|----------0---0-|----------0---0-|----------0-----|0---------------|
D|----2-------2---|----0-------0---|----2-------2---|2---------------|
A|-0--------------|2---------------|3---------------|3---------------|
E|----------------|----------------|----------------|----------------|

Verso 1: (here we go...)
  I can feel the magic floating in       the air......
E|----------------|----------------|----------------|----------------|
B|------1---------|------3---------|------3---------|------3---------|
G|----------0---0-|----------0---0-|----------0---0-|----------0---0-|
D|----2-------2---|----0-------0---|----2-------2---|----0-------0---|
A|0---------------|2---------------|3---------------|2---------------|
E|----------------|----------------|----------------|----------------|

     Being with you    gets me that     way......
E|----------------|----------------|----------------|0---------------|
B|------1---------|------3---------|------3---------|----------0-----|
G|----------0---0-|--------------0-|----------0-----|------0-------0-|
D|----2-------2---|----0-------0---|----2-------2---|----2-------2---|
A|-0--------------|2---------------|3---------------|3-------3-------|
E|----------------|----------------|----------------|----------------|

     I watch the sun-light dance a cross   your face   and I've....
E|----------------|----------------|----------------|----------------|
B|------1---------|------3---------|------3---------|------3---------|
G|----------0---0-|----------0---0-|----------0---0-|----------0---0-|
D|----2-------2---|----0-------0---|----2-------2---|----0-------0---|
A|0---------------|2---------------|3---------------|2---------------|
E|----------------|----------------|----------------|----------------|

             never been this swept away.....
E|----------------|0---------------|------------0---|0h2-------------|
B|------1---------|----------1-----|------3---------|--------3-------|
G|----------0-----|------0-------0-|----2-----------|------------2---|
D|----2-------2---|----2-------2---|0---------0-----|0---0-----------|
A|0---------------|0-------0-------|----------------|----------------|
E|----------------|----------------|----------------|----------------|

Am7                   G/B           C         G/B
All my thoughts just seem to settle on the breeze
Am7               G/B               C Cadd9 C
When I'm lying wrapped up in your arms
Am7                    G/B           C     G/B
The whole world just fades away the only thing
   Am7         Cadd9           D7
I hear is the beating of your heart

Refrão:
(D7)                  G                  Am7
And I can feel you breathe, washing over me
                  C           D7
And suddenly I'm melting into you
                         G                  Am7            C  D7
There's nothing left to prove, baby all we need is just to be
                 G                       Am7
Caught up in a touch, a slow and steady rush
            C                 G/B                 Am7 (2 measures)
Baby isn't that the way that love's supposed to be
                    I can feel you
E|3-------3-------|2---------------|
B|1-------1-------|1---------------|
G|0---------------|----------------|
D|----0-------0---|----------------|
A|----------------|----------------|
E|----------------|----------------|

    breathe.....                                             Just
E|----------------|----------------|----------------|----------2---2-|
B|------3---------|------3---------|------1---------|------3---3---3-|
G|----------0---0-|----------0---0-|----------0---0-|----2-----2---2-|
D|----2-------2---|----0-------0---|----2-------2---|0---------0---0-|
A|3---------------|2---------------|0---------------|----------------|
E|----------------|----------------|----------------|----------------|

(Volta para o solo do começo...uma medida de cada corda)

 G        Am7    Cadd9     D     G     Am7    Cadd9   D
breathe...

Verso 2:
Am7          G/B             Cadd9  G/B
In a way, I know my heart is waking up
Am7          G/B                   Cadd9
As all the walls come tumblin' down
Am7              G/B          Cadd9
Closer than I've ever felt before
               G         Am7
and I know and you know,
                             D7
there's no need for words right now.

Refrão:
(D7)                  G                  Am7
And I can feel you breathe, washing over me
                  C           D7
And suddenly I'm melting into you
                         G                  Am7            C  D7
There's nothing left to prove, baby all we need is just to be
                 G                       Am7
Caught up in a touch, a slow and steady rush
            C                 G                  Am7
Baby isn't that the way that love's supposed to be
D7sus   D7                     C  G/B  Am7  D7
           I can feel you breathe
           G    Am7   Cadd9  Dsus D  G   Am7 Cadd9   D7
Just breathe
(D7)                 G                       Am7
Caught up in the a touch, a slow and steady rush
            C                 G/B               Am7
Baby isn't that the way that love's supposed to be
D7sus   D7
           I can feel you
  breathe.....                                                  Just
E|----------------|----------------|----------------|------3-2-------|
B|------3---------|------3---------|------1---------|----3-----3-----|
G|----------0---0-|----------0---0-|----------0---0-|--2---------2---|
D|----2-------2---|----0-------0---|----2-------2---|0-------------0-|
A|3---------------|2---------------|0---------------|----------------|
E|----------------|----------------|----------------|----------------|
  breathe....
E|----------------|----------------|----------------|----------------|
B|------3---------|------3---------|------3---------|------3---------|
G|----------0---0-|----------0---0-|----------0---0-|----------0---0-|
D|----0-------0---|----0-------0---|----2-------2---|----0-------0---|
A|----------------|2---------------|3---------------|2---------------|
E|3---------------|----------------|----------------|----------------|
  I can feel the magic floating in       the air......
E|----------------|----------------|----------------|----------------|
B|------1---------|------3---------|------3---------|------3---------|
G|----------0---0-|----------0---0-|----------0---0-|----------0---0-|
D|----2-------2---|----0-------0---|----2-------2---|----0-------0---|
A|0---------------|2---------------|3---------------|2---------------|
E|----------------|----------------|----------------|----------------|
     Being with you    gets me that way......
E|----------------|--------0-------|----0-----------||
B|------1---------|------3-----3---|---3------------||
G|----------0---0-|--------------0-|--0-------------||
D|----2-------2---|----0-----------|-2--------------||
A|0---------------|2---------------|3---------------||
E|----------------|----------------|----------------||

Composição de Holly Lamar / Stephanie Bentley
Colaboração e revisão:
  • GbyCastro
1.058 exibições
    • ½ Tom
    • A
    • Bb
    • B
    • C
    • Db
    • D
    • Eb
    • E
    • F
    • F#
    • G
    • Ab
  • Adicionar à lista

    0 comentários

    Ver todos os comentários

    Conseguiu tocar?

    2 Tocaram 1 Ainda não

    Grave um vídeo tocando Breathe e nos envie!

    00:00 / 00:00
    Outros vídeos desta música
    Repetir Qualidade Automático
    Outros vídeos desta música
    00:00 / 00:00
    Automático

    Cifra Club Pro

    Aproveite o Cifra Club com benefícios exclusivos e sem anúncios
    Cifra Club Pro
    Aproveite o Cifra Club com benefícios exclusivos e sem anúncios
    OK