Cifra Club

Aprenda

Dance Dance

Fall Out Boy

Tab de baixo: Versão 3
Intro (0:04)

G|--------------------------------------|
D|--------------------------------------|
A|-2-2-5~-0-----5~-0--2-2-5~-0-----5~-0-| 3x
E|----------3-3----------------3-3------|

Pre-chorus (0:29)

G|-----------------------------------------------------------------|
D|-----------------------------------------------------------------|
A|-2-2-2-2-5-5-0-0---------5-5-0-0-2-2-2-2-5-5-0-0---------5-5-0-0-|
E|-----------------3-3-3-3-------------------------3-3-3-3---------|

*REST until :40*
Chorus

G|---------------------------------|
D|---------------------------------| 4x
A|-2-2-2-2-5-5-5-5-------------0-0-|
E|-----------------3-3-3-3-2-2-----|

G|--------------------------------------|
D|--------------------------------------|
A|-2-2-5~-0-----5~-0--2-2-5~-0-----5~-0-|
E|----------3-3----------------3-3------|

*REST until 1:06*

Verse

G|----------------------------|
D|----------------------------|
A|-----5~-0-2-2-5~-0-----5~-0-|
E|-3-3---------------3-3------|

Pre-chorus

G|-----------------------------------------------------------------|
D|-----------------------------------------------------------------|
A|-2-2-2-2-5-5-0-0---------5-5-0-0-2-2-2-2-5-5-0-0---------5-5-0-0-|
E|-----------------3-3-3-3-------------------------3-3-3-3---------|

G|-------------------|
D|-------------------|
A|-2-2-5~-0-----5~-0-|
E|----------3-3------|

*REST until 1:30*
Chorus

G|---------------------------------|
D|---------------------------------| 4x
A|-2-2-2-2-5-5-5-5-------------0-0-|
E|-----------------3-3-3-3-2-2-----|

Bridge

G|----------------------|
D|----------------------| 3x
A|-2~----0~----------5~-|
E|-------------3~-------|

*Rest until 2:16*
Chorus

G|---------------------------------|
D|---------------------------------| 6x
A|-2-2-2-2-5-5-5-5-------------0-0-|
E|-----------------3-3-3-3-2-2-----|

Outro/Intro

G|--------------------------------------|
D|--------------------------------------|
A|-2-2-5~-0-----5~-0--2-2-5~-0-----5~-0-| 2x
E|----------3-3----------------3-3------|

I am positive that this is correct.
It's an easy song so have fun!
Composição de Fall Out Boy
903 exibições

0 comentários

Ver todos os comentários

Conseguiu tocar?

1 Tocaram 0 Ainda não

Grave um vídeo tocando Dance Dance e nos envie!

00:00 / 00:00
outros vídeos desta música
repetir qualidade Automático
Outros vídeos desta música
00:00 / 00:00
Automático

Cifra Club Pro

Aproveite o Cifra Club com benefícios exclusivos e sem anúncios
Cifra Club Pro
Aproveite o Cifra Club com benefícios exclusivos e sem anúncios
OK