Cifra Club

Be Careful Its My Heart

Frank Sinatra

Cifra: Principal (violão e guitarra)
Selo Cifra Club: esta cifra foi revisada para atender aos critérios oficiais da nossa Equipe de Qualidade.
tom: Dm
E|-------------------------------------------------------------------------------|
                             Be Careful, It's My Heart   Irving Berlin  
E|----------------------------------------------------------------| 1942---------------
Tabbed by: Mike Lydiat
E-mail: mike@docsworkshop.co.uk
Tuning:EADGBE

INTRO CHORD SHAPES
   F6 A7 Bb F Am7 D7 G C7+ C7 
E|-x--0--1--1-0---2--3-3---3--|
B|-3--2--3--1-1---1--3-6---5--|
G|-2--0--3--2-0---2--4-3---3--|
D|-3--2--3--3-2---0--5-5---5--|
A|-x--0--1--3-0---0--5-3---3--|
E|-1--x--1--1-x---x--3-3---3--|

VERSE CHORD SHAPES 
   Gm7 C7 F6  Fmaj7  F  Fmmaj7  Am7  D7  Ab  Ab6 C7+
E|-3---3---x--0------1--1-------0----2---4---4---3---|
B|-3---5---3--1------1--1-------1----1---4---6---6---|
G|-3---3---2--2------2--1-------0----2---5---5---3---|
D|-3---5---3--3------3--3-------2----0---6---x---5---|
A|-5---3---x--3------3--4-------0----0---6---6---3---|
E|-3---3---1--1------1--1-------x----x---4---4---3---|

A ST TIME CHORD SHAPES                                
   Gm7  C7+ C7 Abm7  C#7+  C#7 F  Fmaj7 
E|-3----3---3--4-----4-----4---1---0----|
B|-3----6---5--4-----7-----6---1---1----| NOTE: You play the sequence Gm7  C7+  C7 at fret 3.
G|-3----3---3--4-----4-----4---2---2----| The next sequence Abm7 C#7+ C#7 is exactly
D|-3----5---5--4-----6-----6---3---3----| the same fingering, but at fret 4.
A|-5----3---3--6-----4-----4---3---3----|
E|-3----3---3--4-----4-----4---1---1----|


[INTRO ]    
F6            A7         Bb                Bb F
   Sweetheart   of mine,   I've sent you a valentine.  
Am7           D7         F      G           C7+  C7
   Sweetheart   of mine,   it's more than a valentine.

[VERSE 1]
   Gm7     C7         F6    Fmaj7  F6   Fmaj7
Be careful,   it's my heart.
     Gm7                 C7               F6    Fmaj7  F6   Fmaj7
It's not my watch you're holding, it's my heart.
     F       Fmmaj7 Am7      D7      Gm7      C7    Fmaj7   F6
It's not the note I sent you    that you quick - ly burned.
     Ab             Ab6               Gm7     C7+    C7
It's not the book I lent you that you never returned.

[VERSE 2]
  Gm7    C7         F6    Fmaj7  F6   Fmaj7
Remember   it's my  heart.
    Gm7                 C7          Am7    D7
The heart with which so willingly I part.
     Gm               C7
It's yours to take to keep or break,
    F         Dm       G7
But please, before you start,
   Gm7      C7+  C7 F      Fmaj7  
Be careful, it's my heart.

A ST TIME
   Gm7      C7+  C7    Abm7      C#7+  C#7  
Be careful,         Be careful,     
   Gm7      C7+  C7 F      Fmaj7  
Be careful, it's my heart.
00:00 / 00:00
Outros vídeos desta música
Repetir
Outros vídeos desta música
2 exibições
    • ½ Tom
    • Am
    • Bbm
    • Bm
    • Cm
    • C#m
    • Dm
    • Ebm
    • Em
    • Fm
    • F#m
    • Gm
    • G#m
  • Adicionar à lista

Afinação da cifra

Afinador online

    0 comentários

    Ver todos os comentários

    Entre para o Cifra Club PRO

    Tenha acesso a benefícios exclusivos no App e no Site

    • Chega de anúncios

    • Mais recursos no app do Afinador

    • Atendimento Prioritário

    • Aumente seu limite de lista

    • Ajude a produzir mais conteúdo

    00:00 / 00:00

    Cifra Club Pro

    Aproveite o Cifra Club com benefícios exclusivos e sem anúncios
    Cifra Club Pro
    Aproveite o Cifra Club com benefícios exclusivos e sem anúncios
    OK