Cifra Club

New York New York

Frank Sinatra

Cifra: Principal
exibições 200.112
Tom: D
Intro: (D D7+ D D6) Em7 Em6 A7/4 A7

E|----2---2--------------------------------------------------------|
B|----3---3----2---3---0-------------------------------------------|
G|----2---2--------------------------------------------------------|
D|----0------------------------------------------------------------|
A|-----------------------------------------------------------------|
E|-----------------------------------------------------------------| (2x)

E|-----------------------------------------------------------------|
B|----3---3----2---3---0-------------------------------------------|
G|----0---0--------------------------------------------------------|
D|----2---2--------------------------------------------------------|
A|-----------------------------------------------------------------|
E|----0------------------------------------------------------------|

                     D
 Start spreading the news
                Em7
 I'm leaving today
           D
 I want to be a part of it
                Em7 G/A
 New york, new york

                D
 These vagabond shoes,
                 Em7     A7
 Are longing to stray
                   D             D6
 Right through the very heart of it
               Am7  D7/9
 New york, New York
           G7+        Gm6
 I want to wake up in a city,
              D
 that doesnt sleep
              F#m
 And find I'm king of the hill
 B7         Em    G/A
 Top of the heap

                   D
 These little town blues,
              Em7  A7
 Are melting away
           D                 D6
 I'm gonna make a brand new start of it
            Am7   D7/9
 In old New York
          G7+      Gm6
 If I can make it there
            D/F#   B7
 I'll make it anywhere
           Em7
 It's up to you
 F#m7 G7+  A7   (D D7+ D D6) Em7 Em6 A7/4 A7 D
 New York, New York
Acordes para:

    0 comentários

      mostrar mais comentários

      Conseguiu tocar?

      12tocaram0ainda não

      Grave um vídeo tocando New York New York e mande pra gente!

      00:00 / 00:00
      outros vídeos desta música
      repetirqualidadeautomática
      Outro vídeos desta música
        00:00 / 00:00
        automática
        OK