Cifra Club

Foi o Amor

Gabriel Diniz

Cifra: Principal (violão e guitarra)
Tom: Bb
[Intro] Bb9  F  Am  Dm

E|----------------------------------------------------|
B|--------------6-5----------------------6-5----------|
G|----5-5/7---------7-5-0h2---0-0-5-0--------7-5-7----|
D|-/7--------/7------------------------7--------------|
A|----------------------------------------------------|
E|----------------------------------------------------|

E|----5/--0--1----------------------------------------|
B|----6/--1--3----------------------------------------|
G|-/7-------------------------------------------------|
D|----------------------------------------------------|
A|----------------------------------------------------|
E|----------------------------------------------------|

[Primeira Parte]

Bb9                             F
 Não sei o que cê viu em mim, não sei
                     Am
Mas devo te fazer feliz
                    Dm  F  Dm       F  Dm  
Só isso pra justificar você me amar

[Segunda Parte]

         Bb9                         F
Qual a graça que vê nas minhas palhaçadas?
                    Am
Quando cê me passa raiva
                 Dm
Vou correndo perdoar

         Bb9
Vem me agarra
                       F
Não desgruda mais, me beija mais
   Am                               Dm
E só no seu abraço eu achei meu cantinho de paz

[Refrão]

                        Bb9
Não fui eu que te escolhi
                      F 
Nem você que me escolheu
        Am                   Dm
Foi o amor que juntou você e eu

                        Bb9
Não fui eu que te escolhi
                      F 
Nem você que me escolheu
        Am                   Dm
Foi o amor que juntou você e eu

( Bb9  F  Am  Dm )

[Segunda Parte]

         Bb9                         F
Qual a graça que vê nas minhas palhaçadas?
                    Am
Quando cê me passa raiva
                 Dm
Vou correndo perdoar

         Bb9
Vem me agarra
                       F
Não desgruda mais, me beija mais
   Am                               Dm
E só no seu abraço eu achei meu cantinho de paz

[Refrão]

                        Bb9
Não fui eu que te escolhi
                      F 
Nem você que me escolheu
        Am                   Dm
Foi o amor que juntou você e eu

                        Bb9
Não fui eu que te escolhi
                      F 
Nem você que me escolheu
        Am                   Dm
Foi o amor que juntou você e eu
exibições 349
Acordes para:
    Colaboração e revisão:
    • Getúlio Vasconcelos

    0 comentários

    mostrar mais comentários

    Conseguiu tocar?

    0 tocaram 0 ainda não

    Grave um vídeo tocando Foi o Amor e mande pra gente!

    00:00 / 00:00
    outros vídeos desta música
    repetir qualidade Automático
    Outros vídeos desta música
    00:00 / 00:00
    Automático
    OK