Cifra Club

Listen

Goo Goo Dolls

Cifra: Principal (violão e guitarra)
Selo Cifra Club: esta cifra foi revisada para atender aos critérios oficiais da nossa Equipe de Qualidade.
tom: D
Intro

E|---------------------------|
B|---------------------------|
G|----6-6-5-6-5--------2-----|
D|--------------------3----3-| x4 Then, A F D x2
A|-------------------0----3--|
E|-----------------------1---|


Verse

D             F5
Why are you so green

F5           G5         A5
How can say that to me
pm......................

D                 F5
When did you fall from grace

F5                    G5
Youve got a dirty face
pm....................

G5        A5
And its killin me
pm................


Chorus (use the intro for 1st chorus)

                    D   F5
Why dont you listen
why dont you listen to me
D                      F5
Im dorwnin but i never felt so free

A F5 D x2

Verse 2

D             F5
Can you follow me

F5              G5          A5
Will you justify me please
pm.........................

D
Said you're wrong
F5
Said you're gone
F5                              G5
I guess i'll wait another night
pm.............................

G5                        A5
For what you're gonna say
pm........................

A5
Back to me so
pm........

2nd chorus
   A          F5       D
Why dont you listen
A     F5    D
Why don't you listen
A     F5     D
To me
A           F5                   D
I'm drownin but i never felt so free
A       F5          D
Why don't you listen
A       F5          D
Why don't you listen

Solo:

E|---------------------------------------------------------------------------|
B|---------------------------------------------------------------------------|
G|--10--9-9--10-10-10-10-10-10-10-10-10--12-14-14-14-14-14-12-12-12-12-12-17-|
D|---------------------------------------------------------------------------|
A|---------------------------------------------------------------------------|
E|---------------------------------------------------------------------------|

E|-------------------------------------|
B|-------------------------------------|
G-17-17-12-12-12-12-14h15-12-|
D|-------------------------------------|
A|-------------------------------------|
E|-------------------------------------|

Bridge

D
And i try
F5
But never try too long
C5
When you're gone

Final Chorus (same as 1st chorus)
                   D   F5
Why dont you listen
                   D   F5
Why dont you listen to me
D                       F5
I'm drownin but i never felt so free
                  D    F5
Why dont you listen
                  D    F5
Why dont you listen
                  D    F5
Why dont you listen
                       D  D  D
Hear what you're missin
Outros vídeos desta música
    16 exibições
      • ½ Tom
      • A
      • Bb
      • B
      • C
      • Db
      • D
      • Eb
      • E
      • F
      • F#
      • G
      • Ab
    • Adicionar à lista

    Afinação da cifra

    Afinador online

      0 comentários

      Ver todos os comentários

      Entre para o Cifra Club PRO

      Tenha acesso a benefícios exclusivos no App e no Site

      • Chega de anúncios

      • Badges exclusivas

      • Mais recursos no app do Afinador

      • Atendimento Prioritário

      • Aumente seu limite de lista

      • Ajude a produzir mais conteúdo

      Cifra Club Pro

      Aproveite o Cifra Club com benefícios exclusivos e sem anúncios
      Cifra Club Pro
      Aproveite o Cifra Club com benefícios exclusivos e sem anúncios
      Ops (: Contenido disponible sólo en portugués.
      OK