Cifra Club

Aprenda

Broadway

Goo Goo Dolls

Cifra: Principal (violão e guitarra)
tom: C
(intro 2x) C Am

      C    Am      C     Am             F            G
E|--------------3~---------------------------------------
B|------0---1-----------1-1--3-3/5-3--1----1---1h3-1-----
G|--------------------------------------2----2-------2-0-
D|-------------------------------------------------------
A|-------------------------------------------------------
E|-------------------------------------------------------

"Broadway is dark tonight..."

E|-----0-------0-------0------0-----------0-------0-------0-----0---
B|---1---1---1---1---1---1-------1------1---1---1---1---1-----1---1-
G|--------------------------0---------------------------------------
D|------------------------------------------------------------------
A|0-----------------------------------3---------------------3-------
E|---------3------1---------------------------3-------1-------------

"Broadway is dark tonight..."  é o 2º que ele canta

E|-----0-------0-------0------0-----0-----0-----0--------
B|---1---1---1---1---1---1------1-----1-----1-----1------
G|--------------------------0-----0-----0-----0----------
D|-------------------------------------------------------
A|0------------------------------------------------------
E|---------3------1--------------------------------------

"See The young Man..."

E|-----0-------0-------0-----0---------0-------0------
B|---1---1---1---1---1-----1---1-----1---1---1---1----
G|----------------------------------------------------
D|---------------------------------0------------------
A|3----------------------3----------------------------
E|---------3-------1-----------------------1----------

(entra os acordes)
( C Am ) (2x)

(refrão)
Am          G        F
Broadway is dark tonight
Am           G               F       C
A little bit weaker than you used to be
Am          G        F
Broadway is dark tonight
        Am        G
See the young man sitting
       F         C
In the old man's bar
Dm              F        C    Am  C  Am
Waiting for his turn to die

(verse)
C          Am
The cowboy kills the rock star
C                Am
And Friday night's gone too far
C             Am
The dim light hides the years
   F             G
On all the faded girls
C                 Am
Forgotten but not gone
C                    Am
You drink it off your mind
C                  Am
You talk about the world
          F                    G
Like it's someplace that you've been

(bridge)
Am
You see you'd love to run home
But you know you ain't got one

Fmaj7
And you're livin' in a world
                                  G    F
That you're best forgotten around here

(refrão)
Am          G        F
Broadway is dark tonight
Am           G               F       C
A little bit weaker than you used to be
Am          G        F
Broadway is dark tonight
        Am        G
See the young man sitting
       F         C
In the old man's bar
Dm              F        C    Am  C  Am
Waiting for his turn to die

C               Am
You choke down all your anger
C               Am
Forget your only son
C               Am            F            G
You pray to statues when you sober up for fun
C               Am
You're anger don't impress me
C               Am
The world slapped in your face
C               Am            F                G
It always rains like hell on the loser's day parade

Am
You see you'd love to run home
But you know ain't got one
Fmaj7
Cause you're livin' in a world
That you're best forgotten
C
And if you're thinkin' you're a joke
Anda nobody's gonna listen
F
To the one small point
                                  G        F
I know they've been missin' round here

(refrão)

(solo - around 2:50)
      C                   Am
E|----------------------------------------
B|----5--3--6--5--3--5--6--5--3--5--3-----
G|-/5----------------------------------5--
D|----------------------------------------
A|----------------------------------------
E|----------------------------------------

      C                 Am
E|---------------------------------
B|--6--5--3--5--6--5--3--5--3------
G|-----------------------------5~--
D|---------------------------------
A|---------------------------------
E|---------------------------------

      F             G
E|-----------------------------------
B|--5h6--5----------------------------
G|----------7--5-----------------5~---
D|----------------7--5-----5--7-------
A|----------------------7-------------
E|------------------------------------

      F                G
E|------------------------------
B|-5h6-5----5---6--8~-8~--------
G|-------7--5------7~-7~--------
D|------------------------------
A|------------------------------
E|------------------------------

Am
You see you'd love to run home
But you know ain't got one
Fmaj7
Cause you're livin' in a world
That you're best forgotten
C
And if you're thinkin' you're a joke
And nobody's gonna listen
F
To the one small point
                                  G     F
I know they've been missin' round here

(outro solinho)
E|--------------------------------------------
B|---------------------------5----------------
G|---------------------5--7------7--5---------
D|-------------3--5/7------------------7--5---
A|-------3---5--------------------------------
E|-3--5---------------------------------------

(refrão)
Am          G        F
Broadway is dark tonight
Am           G               F       C
A little bit weaker than you used to be
Am          G        F
Broadway is dark tonight
        Am        G
See the young man sitting
       F         C
In the old man's bar
Dm              F        C (deixe soar)
Waiting for his turn to die
Composição de Johnny Rzeznik
Colaboração e revisão:
  • Augusto Santos
  • Leonardo Rosenberg
13.203 exibições
    • ½ Tom
    • A
    • Bb
    • B
    • C
    • Db
    • D
    • Eb
    • E
    • F
    • F#
    • G
    • Ab
  • Adicionar à lista

    0 comentários

    Ver todos os comentários
    00:00 / 00:00
    outros vídeos desta música
    repetir qualidade Automático
    Outros vídeos desta música
    00:00 / 00:00
    Automático

    Cifra Club Pro

    Aproveite o Cifra Club com benefícios exclusivos e sem anúncios
    Cifra Club Pro
    Aproveite o Cifra Club com benefícios exclusivos e sem anúncios
    OK