Cifra Club

Aprenda

Há Um Lugar

Heloísa Rosa

Cifra: Versão 5 (violão e guitarra)
tom: A
Intro 1:

 |C9                               |G                                | Base
 |-------------------------------------------------------------------|
 |C9                               |G                                | Base
E|----------------|----------------|----------------|----------------|
B|-----8---8------|-7-------7------|--------7-------|----------------|
G|-7/9---9--------|-7-7-7h9----7/9-|--7-7h9----7/9--|----------------|
D|----------------|----------------|----------------|----------------|
A|----------------|----------------|----------------|----------------|
E|----------------|----------------|----------------|----------------|
 |-------------------------------------------------------------------|
 |C9                               |G                                |
E|----------------|----------------|----------------|----------------|
B|----------8---8-|-8-8-7-7--------|----------------|----------------|
G|------7/9---9---|-9-9-7-7--------|-7/9--7/9--7-9--|----------------|
D|----------------|---------7-7h9--|---------------9|----------------|
A|----------------|----------------|----------------|----------------|
E|----------------|----------------|----------------|----------------|

{Primeira Estrófe}

Intro 2
 |-------------------------------------------------------------------|
 |C9                               |G                                | Base
E|----------------|----------------|----------------|----------------|
B|-----8---8---7--|----------------|-7--------------|-7---7h9p7------|
G|-7/9---9-----7--|-----------7-7h9|----7/9----7-7h9|---9----------9-|
D|----------------|----------------|----------------|----------------|
A|----------------|----------------|----------------|----------------|
E|----------------|----------------|----------------|----------------|
 |-------------------------------------------------------------------|
 |C9                               |G                                |
E|----------------|----------------|----------------|----------------|
B|----------8---8-|-8-8-7-7--------|----------------|----------------|
G|------7/9---9---|-9-9-7-7--------|-7/9-7/9-7---7h9|-7--------------|
D|----------------|---------7-7h9--|-----------9----|----9-9---------|
A|----------------|----------------|----------------|----------------|
E|----------------|----------------|----------------|----------------|

Final
 |-------------------------------------------------------------------|
 |C9                               |G                                | Base
E|----------------|----------------|----------------|----------------|
B|-----8---8---7-7|----------------|-7--------------|-7---7h9p7------|
G|-7/9---9----7-7-|-----------7-7h9|----7/9----7-7h9|---9----------9-|
D|----------------|----------------|----------------|----------------|
A|----------------|----------------|----------------|----------------|
E|----------------|----------------|----------------|----------------|
 |-------------------------------------------------------------------|
 |C9                               |G                                | Base
E|----------------|----------------|----------------|----------------|
B|----------8---8-|-8-8h10-10/12---|-10--8h10p8-----|----------------|
G|------7/9---9---|----------------|------------7---|----------------|
D|----------------|----------------|--------------7-|----------------|
A|----------------|----------------|----------------|----------------|
E|----------------|----------------|----------------|----------------|
Colaboração e revisão:
  • Carlos Eduardo
6.307 exibições
    • ½ Tom
    • A
    • Bb
    • B
    • C
    • Db
    • D
    • Eb
    • E
    • F
    • F#
    • G
    • Ab
  • Adicionar à lista

    0 comentários

    Ver todos os comentários
    00:00 / 00:00
    outros vídeos desta música
    repetir qualidade Automático
    Outros vídeos desta música
    00:00 / 00:00
    Automático

    Cifra Club Pro

    Aproveite o Cifra Club com benefícios exclusivos e sem anúncios
    Cifra Club Pro
    Aproveite o Cifra Club com benefícios exclusivos e sem anúncios
    OK