Cifra Club

Hechizo

Héroes Del Silencio

Cifra (violão e guitarra)
Selo Cifra Club: esta cifra foi revisada para atender aos critérios oficiais da nossa Equipe de Qualidade.
tom: Em
Intro:
E||-----------------------|          |-----------------------|
B||-----------------------|          |-----------------------|
G||-----------------------|          |-----------------------|
D||-----5-------5----5----| x12      |-----5-------5----5----| x4
A||--3-------3------------|          |--7-------7------------|
E||-----------------------|          |-----------------------|

Verso 1:
E|-----------------------|-----------------------|-----------------------|
B|-----------------------|-----------------------|-----------------------|
G|-----------------------|-----------------------|-----------------------|
D|-----5-------5----5----|-----5-------5----5----|-----5-------5----5----|
A|--3-------3------------|--3-------3------------|--3-------3------------|
E|-----------------------|-----------------------|-----------------------|

E|-----------------------|
B|-----------------------|
G|-----------------------|
D|-----5-------5----5----|
A|--3-------3------------|
E|-----------------------|

E|-----------------------|-----------------------|-----------------------|
B|-----------------------|-----------------------|-----------------------|
G|-----------------------|-----------------------|-----------------------|
D|-----5--------5---5----|-----5-------5---5-----|-----5-------5----5----|
A|--7-------7------------|--7-------7------------|--7-------7------------|
E|-----------------------|-----------------------|-----------------------|

E|-----------------------|-----------------------|-----------------------|
B|-----------------------|-----------------------|-----------------------|
G|-----------------------|-----------------------|-----------------------|
D|-----5-------5----5----|-----5-------5----5----|-----5-------5----5----|
A|--7-------7------------|--3-------3------------|--3-------3------------|
E|-----------------------|-----------------------|-----------------------|

E|-----------------------|-----------------------|
B|-----------------------|-----------------------|
G|-----------------------|-----------------------|
D|-----5-------5----5----|-----5-------5----5----|
A|--3-------3------------|--3-------3------------|
E|-----------------------|-----------------------|

E|-----------------------|-----------------------|
B|-----------------------|-----------------------|
G|-----------------------|-----------------------|
D|-----5-------5----5----|-----5-------5----5----|
A|--7-------7------------|--7-------7------------|
E|-----------------------|-----------------------|

E|------------------------|--------------------|----------------------|
B|------------------------|--------------------|-----6--5-------------|
G|-------------7-------5--|--------------------|-----------5----------|
D|-----5------------------|-------9------------|----------------------|
A|--7-------7-------7-----|----7---------------|--8-------------------|
E|------------------------|--------------------|----------------------|

E|-----------------------|--3----3--3----3----3--|--3----3----3----3----|
B|---------5-------------|--3----3--3----3----3--|--3----3----3----3----|
G|-----5-------5---------|--0----0--0----0----0--|--0----0----0----0----|
D|--7--------------7-----|--0----0--0----0----0--|--0----0----0----0----|
A|-----------------------|-----------------------|----------------------|
E|-----------------------|-----------------------|----------------------|

porque.........                        uhhhhhh  uhhhhhhhh
E|--0--------|--0--------|--0--------|--0--------|
B|--0--------|--0--------|--0--------|--0--------|
G|--9--------|--9--------|--9--------|--9--------|
D|--9--------|--9--------|--9--------|--9--------|
A|--7--------|--7--------|--7--------|--7--------|
E|-----------|-----------|-----------|-----------|
Verso 2 (igual que el primer verso)

completamente agotados                       y no entiendes
E|-----------------------|--3----3--3----3----3--|--3----3----3----3----|
B|---------5-------------|--3----3--3----3----3--|--3----3----3----3----|
G|-----5-------5---------|--0----0--0----0----0--|--0----0----0----0----|
D|--7--------------7-----|--0----0--0----0----0--|--0----0----0----0----|
A|-----------------------|-----------------------|----------------------|
E|-----------------------|-----------------------|----------------------|

porque.........
E|--0----0--0----0--0----|--0----0--0----0--0----|--0----0--0----0--0----|
B|--0----0--0----0--0----|--0----0--0----0--0----|--0----0--0----0--0----|
G|--9----9--9----9--9----|--9----9--9----9--9----|--9----9--9----9--9----|
D|--9----9--9----9--9----|--9----9--9----9--9----|--9----9--9----9--9----|
A|--7----7--7----7--7----|--7----7--7----7--7----|--7----7--7----7--7----|
E|-----------------------|-----------------------|-----------------------|

E|--0----0--0----0--0----|
B|--0----0--0----0--0----|
G|--9----9--9----9--9----|
D|--9----9--9----9--9----|
A|--7----7--7----7--7----|
E|-----------------------|

 Vamonos.................
  F
E|--------------------------|--------------------------|
B|--6--6--6--6--6--6--6--6--|--6--6--6--6--6--6--6--6--|
G|--5--5--5--5--5--5--5--5--|--5--5--5--5--5--5--5--5--|
D|--7--7--7--7--7--7--7--7--|--7--7--7--7--7--7--7--7--|
A|--8--8--8--8--8--8--8--8--|--8--8--8--8--8--8--8--8--|
E|--------------------------|--------------------------|

 Exterior..............
  C
E|--0--0--0--0--0--0--0--0--|--0--0--0--0--0--0--0--0--|
B|--1--1--1--1--1--1--1--1--|--1--1--1--1--1--1--1--1--|
G|--0--0--0--0--0--0--0--0--|--0--0--0--0--0--0--0--0--|
D|--2--2--2--2--2--2--2--2--|--2--2--2--2--2--2--2--2--|
A|--3--3--3--3--3--3--3--3--|--3--3--3--3--3--3--3--3--|
E|--3--3--3--3--3--3--3--3--|--3--3--3--3--3--3--3--3--|

  Los  ojos.........
  Am
E|--0--0--0--0--0--0--0--0--|--0--0--0--0--0--0--0--0--|
B|--1--1--1--1--1--1--1--1--|--1--1--1--1--1--1--1--1--|
G|--2--2--2--2--2--2--2--2--|--2--2--2--2--2--2--2--2--|
D|--2--2--2--2--2--2--2--3--|--2--2--2--2--2--2--2--3--|
A|--0--0--0--0--0--0--0--0--|--0--0--0--0--0--0--0--0--|
E|--------------------------|--------------------------|

 Color............            Mientras toda da igual.........
  G
E|--3--3--3--3--3--3--3--3--|--3--3--3--3--3--3--3--3--|
B|--3--3--3--3--3--3--3--3--|--3--3--3--3--3--3--3--3--|
G|--0--0--0--0--0--0--0--0--|--0--0--0--0--0--0--0--0--| x2
D|--0--0--0--0--0--0--0--0--|--0--0--0--0--0--0--0--0--|
A|--2--2--2--2--2--2--2--2--|--2--2--2--2--2--2--2--2--|
E|--3--3--3--3--3--3--3--3--|--3--3--3--3--3--3--3--3--|

Interlude:
                                            Mientras toda da igual.........
E|--------------------|--------------------|
B|--------------------|------------3-------|
G|--------------------|--------------------|
D|----5-------5----5--|----5------------5--|
A|-3-------3----------|-3-------3----------|
E|--------------------|--------------------|

E|--------------------|--------------------|
B|------------5p3-----|------------5p3-----|
G|--------------------|--------------------|
D|----5------------5--|----5------------5--|
A|-3-------3----------|-3-------3----------|
E|--------------------|--------------------|

E|-----------------------|
B|-----------------------|
G|-----------------------| x4
D|-----5--------5---5----|
A|--7-------7------------|
E|-----------------------|

E|--------------------|--------------------|
B|------------3-------|------------5p3-----|
G|--------------------|--------------------|
D|----5------------5--|----5------------5--|
A|-3-------3----------|-3-------3----------|
E|--------------------|--------------------|

E|--------------------|--------------------|
B|------------5p3-----|------------5p3-----|
G|--------------------|--------------------|
D|----5------------5--|----5------------5--|
A|-3-------3----------|-3-------3----------|
E|--------------------|--------------------|

E|------------7----7--|
B|------------0----0--|
G|------------0----0--| esta figura x4
D|----5-------5----5--|
A|-7------7-----------|
E|--------------------|

Verso 3 (igual que el primer verso)....

completamente agotados                       y no entiendes
E|-----------------------|--3----3--3----3----3--|--3----3----3----3----|
B|---------5-------------|--3----3--3----3----3--|--3----3----3----3----|
G|-----5-------5---------|--0----0--0----0----0--|--0----0----0----0----|
D|--7--------------7-----|--0----0--0----0----0--|--0----0----0----0----|
A|-----------------------|-----------------------|----------------------|
E|-----------------------|-----------------------|----------------------|

porque.........
E|--0----0--0----0--0----|--0----0--0----0--0----|--0----0--0----0--0----|
B|--0----0--0----0--0----|--0----0--0----0--0----|--0----0--0----0--0----|
G|--9----9--9----9--9----|--9----9--9----9--9----|--9----9--9----9--9----|
D|--9----9--9----9--9----|--9----9--9----9--9----|--9----9--9----9--9----|
A|--7----7--7----7--7----|--7----7--7----7--7----|--7----7--7----7--7----|
E|-----------------------|-----------------------|-----------------------|

E|--0----0--0----0--0----|
B|--0----0--0----0--0----|
G|--9----9--9----9--9----|
D|--9----9--9----9--9----|
A|--7----7--7----7--7----|
E|-----------------------|

Vamonos.................
  F
E|--------------------------|--------------------------|
B|--6--6--6--6--6--6--6--6--|--6--6--6--6--6--6--6--6--|
G|--5--5--5--5--5--5--5--5--|--5--5--5--5--5--5--5--5--|
D|--7--7--7--7--7--7--7--7--|--7--7--7--7--7--7--7--7--|
A|--8--8--8--8--8--8--8--8--|--8--8--8--8--8--8--8--8--|
E|--------------------------|--------------------------|

 Exterior..............
  C
E|--0--0--0--0--0--0--0--0--|--0--0--0--0--0--0--0--0--|
B|--1--1--1--1--1--1--1--1--|--1--1--1--1--1--1--1--1--|
G|--0--0--0--0--0--0--0--0--|--0--0--0--0--0--0--0--0--|
D|--2--2--2--2--2--2--2--2--|--2--2--2--2--2--2--2--2--|
A|--3--3--3--3--3--3--3--3--|--3--3--3--3--3--3--3--3--|
E|--3--3--3--3--3--3--3--3--|--3--3--3--3--3--3--3--3--|

  Los  ojos.........
  Am
E|--0--0--0--0--0--0--0--0--|--0--0--0--0--0--0--0--0--|
B|--1--1--1--1--1--1--1--1--|--1--1--1--1--1--1--1--1--|
G|--2--2--2--2--2--2--2--2--|--2--2--2--2--2--2--2--2--|
D|--2--2--2--2--2--2--2--3--|--2--2--2--2--2--2--2--3--|
A|--0--0--0--0--0--0--0--0--|--0--0--0--0--0--0--0--0--|
E|--------------------------|--------------------------|
 Color............
  G
E|--3--3--3--3--3--3--3--3--|--3--3--3--3--3--3--3--3--|
B|--3--3--3--3--3--3--3--3--|--3--3--3--3--3--3--3--3--|
G|--0--0--0--0--0--0--0--0--|--0--0--0--0--0--0--0--0--| x2
D|--0--0--0--0--0--0--0--0--|--0--0--0--0--0--0--0--0--|
A|--2--2--2--2--2--2--2--2--|--2--2--2--2--2--2--2--2--|
E|--3--3--3--3--3--3--3--3--|--3--3--3--3--3--3--3--3--|

Vamonos.................
E|--------------------------|--------------------------|
B|--6--6--6--6--6--6--6--6--|--6--6--6--6--6--6--6--6--|
G|--5--5--5--5--5--5--5--5--|--5--5--5--5--5--5--5--5--|
D|--7--7--7--7--7--7--7--7--|--7--7--7--7--7--7--7--7--|
A|--8--8--8--8--8--8--8--8--|--8--8--8--8--8--8--8--8--|
E|--------------------------|--------------------------|

 Exterior..............
  C
E|--0--0--0--0--0--0--0--0--|--0--0--0--0--0--0--0--0--|
B|--1--1--1--1--1--1--1--1--|--1--1--1--1--1--1--1--1--|
G|--0--0--0--0--0--0--0--0--|--0--0--0--0--0--0--0--0--|
D|--2--2--2--2--2--2--2--2--|--2--2--2--2--2--2--2--2--|
A|--3--3--3--3--3--3--3--3--|--3--3--3--3--3--3--3--3--|
E|--3--3--3--3--3--3--3--3--|--3--3--3--3--3--3--3--3--|

  Los  ojos.........
  Am
E|--0--0--0--0--0--0--0--0--|--0--0--0--0--0--0--0--0--|
B|--1--1--1--1--1--1--1--1--|--1--1--1--1--1--1--1--1--|
G|--2--2--2--2--2--2--2--2--|--2--2--2--2--2--2--2--2--|
D|--2--2--2--2--2--2--2--3--|--2--2--2--2--2--2--2--3--|
A|--0--0--0--0--0--0--0--0--|--0--0--0--0--0--0--0--0--|
E|--------------------------|--------------------------|

 Color............
  G
E|--3--3--3--3--3--3--3--3--|--3--3--3--3--3--3--3--3--|
B|--3--3--3--3--3--3--3--3--|--3--3--3--3--3--3--3--3--|
G|--0--0--0--0--0--0--0--0--|--0--0--0--0--0--0--0--0--| x2
D|--0--0--0--0--0--0--0--0--|--0--0--0--0--0--0--0--0--|
A|--2--2--2--2--2--2--2--2--|--2--2--2--2--2--2--2--2--|
E|--3--3--3--3--3--3--3--3--|--3--3--3--3--3--3--3--3--|

 Mientras todo va igual...............
  Em
E|--------------------------|--------------------------|
B|--------------------------|--------------------------|
G|--9--9--9--9--9--9--9--9--|--9--9--9--9--9--9--9--9--|
D|--9--9--9--9--9--9--9--9--|--9--9--9--9--9--9--9--9--| x2
A|--7--7--7--7--7--7--7--7--|--7--7--7--7--7--7--7--7--|
E|--------------------------|--------------------------|

Ocho..........
  F
E|----------------------------------|
B|----------------------------------|
G|--10--10--10--10--10--10--10--10--|
D|--10--10--10--10--10--10--10--10--|
A|---8---8---8---8---8---8---8---8--|
E|----------------------------------|

Siete.......  Seis.........
  F#
E|----------------------------------|
B|----------------------------------|
G|--11--11--11--11--11--11--11--11--|
D|--11--11--11--11--11--11--11--11--| x2
A|---9---9---9---9---9---9---9---9--|
E|----------------------------------|
Cinco......
  G
E|----------------------------------|
B|----------------------------------|
G|--12--12--12--12--12--12--12--12--|
D|--12--12--12--12--12--12--12--12--|
A|--10--10--10--10--10--10--10--10--|
E|----------------------------------|

Cuatro.........
  G#
E|----------------------------------|
B|----------------------------------|
G|--13--13--13--13--13--13--13--13--|
D|--13--13--13--13--13--13--13--13--|
A|--11--11--11--11--11--11--11--11--|
E|----------------------------------|

Tres.........
  A
E|----------------------------------|
B|----------------------------------|
G|--14--14--14--14--14--14--14--14--|
D|--14--14--14--14--14--14--14--14--|
A|--12--12--12--12--12--12--12--12--|
E|----------------------------------|

Dos.........
  A#
E|----------------------------------|
B|----------------------------------|
G|--15--15--15--15--15--15--15--15--|
D|--15--15--15--15--15--15--15--15--|
A|--13--13--13--13--13--13--13--13--|
E|----------------------------------|

Uno.....
  B
E|----------------------------------|
B|----------------------------------|
G|--16--16--16--16--16--16--16--16--|
D|--16--16--16--16--16--16--16--16--|
A|--14--14--14--14--14--14--14--14--|
E|----------------------------------|


Entre dos tierras

      Bm
E|---7------|
B|---7------|
G|---7------|
D|---9------| x4
A|---9------|
E|---7------|

Luego...
      Bm
E|---7----------|---7----------|
B|---7----------|---7----------|
G|---7----------|---7----------|
D|---9----------|---9----------|
A|---9----------|---9----------|
E|---7----------|---7----------|

      Bm             G
E|---7----------|---3----------|
B|---7----------|---3----------|
G|---7----------|---4----------|
D|---9----------|---5----------|
A|---9----------|---5----------|
E|---7----------|---3----------|
      Bm
E|---7----------|---7----------|
B|---7----------|---7----------|
G|---7----------|---7----------|
D|---9----------|---9----------|
A|---9----------|---9----------|
E|---7----------|---7----------|

      Bm             A
E|---7----------|---5----------|
B|---7----------|---5----------|
G|---7----------|---6----------|
D|---9----------|---7----------|
A|---9----------|---7----------|
E|---7----------|---5----------|

Ritmo...
      Bm
E|---7-7-7-7-7-7-7-7----|---7-7-7-7-7-7-7-7----|
B|---7-7-7-7-7-7-7-7----|---7-7-7-7-7-7-7-7----|
G|---7-7-7-7-7-7-7-7----|---7-7-7-7-7-7-7-7----|
D|---9-9-9-9-9-9-9-9----|---9-9-9-9-9-9-9-9----|
A|---9-9-9-9-9-9-9-9----|---9-9-9-9-9-9-9-9----|
E|---7-7-7-7-7-7-7-7----|---7-7-7-7-7-7-7-7----|

      Bm                     G
E|---7-7-7-7-7-7-7-7----|---3-3-3-3-3----------|
B|---7-7-7-7-7-7-7-7----|---3-3-3-3-3----------|
G|---7-7-7-7-7-7-7-7----|---0-0-0-0-0----------|
D|---9-9-9-9-9-9-9-9----|---x-x-x-x-x----------|
A|---9-9-9-9-9-9-9-9----|---x-x-x-x-x----------|
E|---7-7-7-7-7-7-7-7----|---x-x-x-x-x----------|

      Bm
E|---7-7-7-7-7-7-7-7----|---7-7-7-7-7-7-7-7----|
B|---7-7-7-7-7-7-7-7----|---7-7-7-7-7-7-7-7----|
G|---7-7-7-7-7-7-7-7----|---7-7-7-7-7-7-7-7----|
D|---9-9-9-9-9-9-9-9----|---9-9-9-9-9-9-9-9----|
A|---9-9-9-9-9-9-9-9----|---9-9-9-9-9-9-9-9----|
E|---7-7-7-7-7-7-7-7----|---7-7-7-7-7-7-7-7----|

      Bm                     A
E|---7-7-7-7-7-7-7-7----|---5-5-5-5-5-----|
B|---7-7-7-7-7-7-7-7----|---5-5-5-5-5-----|
G|---7-7-7-7-7-7-7-7----|---6-6-6-6-6-----|
D|---9-9-9-9-9-9-9-9----|---7-7-7-7-7-----|
A|---9-9-9-9-9-9-9-9----|---7-7-7-7-7-----|
E|---7-7-7-7-7-7-7-7----|---5-5-5-5-5-----|

      Bm
E|---7-7-7-7-7-7-7-7----|---7-7-7-7-7-7-7-7----|
B|---7-7-7-7-7-7-7-7----|---7-7-7-7-7-7-7-7----|
G|---7-7-7-7-7-7-7-7----|---7-7-7-7-7-7-7-7----|
D|---9-9-9-9-9-9-9-9----|---9-9-9-9-9-9-9-9----|
A|---9-9-9-9-9-9-9-9----|---9-9-9-9-9-9-9-9----|
E|---7-7-7-7-7-7-7-7----|---7-7-7-7-7-7-7-7----|

      Bm                     G
E|---7-7-7-7-7-7-7-7----|---3-3-3-3-3----------|
B|---7-7-7-7-7-7-7-7----|---3-3-3-3-3----------|
G|---7-7-7-7-7-7-7-7----|---0-0-0-0-0----------|
D|---9-9-9-9-9-9-9-9----|---x-x-x-x-x----------|
A|---9-9-9-9-9-9-9-9----|---x-x-x-x-x----------|
E|---7-7-7-7-7-7-7-7----|---x-x-x-x-x----------|

      Bm
E|---7-7-7-7-7-7-7-7----|---7-7-7-7-7-7-7-7----|
B|---7-7-7-7-7-7-7-7----|---7-7-7-7-7-7-7-7----|
G|---7-7-7-7-7-7-7-7----|---7-7-7-7-7-7-7-7----|
D|---9-9-9-9-9-9-9-9----|---9-9-9-9-9-9-9-9----|
A|---9-9-9-9-9-9-9-9----|---9-9-9-9-9-9-9-9----|
E|---7-7-7-7-7-7-7-7----|---7-7-7-7-7-7-7-7----|
      Bm                     A
E|---7-7-7-7-7-7-7-7----|---5~------|
B|---7-7-7-7-7-7-7-7----|---5~------|
G|---7-7-7-7-7-7-7-7----|---6~------|
D|---9-9-9-9-9-9-9-9----|---7~------|
A|---9-9-9-9-9-9-9-9----|---7~------|
E|---7-7-7-7-7-7-7-7----|---5~------|

Arpegio de la Intro:
      Bm                     F#m
E|----------------------|-----------------------|
B|----------------------|-----------------------|
G|-----------7----------|-----------9-----------|
D|-----9-------9--------|-----7-------7---------|
A|---9---9-------9------|---9---9-------9-------|
E|----------------------|-----------------------|

      Em                      G
E|----------------------|-----------------------|
B|----------------------|-----------------------|
G|-----------9----------|-------------12--------|
D|-----9-------9--------|------12-------12------|
A|---7---7-------7------|---10----10------10----|
E|----------------------|-----------------------|

     Bm                     F#m
E|----------------------|-----------------------|
B|----------------------|-----------------------|
G|-----------7----------|-----------9-----------|
D|-----9-------9--------|-----7-------7---------|
A|---9---9-------9------|---9---9-------9-------|
E|----------------------|-----------------------|

      Em                      G
E|----------------------|-----------------------|
B|----------------------|-----------------------|
G|-----------9----------|-------------12--------|
D|-----9-------9--------|------12---------------|
A|---7---7-------7------|---10----10------------|
E|----------------------|-----------------------|


Verso 1(Con los mismos acordes, el arpegio lleva pequeñas modificaciones)

    Te puedes vender
    Cualquier oferta es buena
    B  quieres poder
    Que fácil es
    Abrir tanto la boca para opinar
    Y si te piensas echar atrás
    Tienes muchas huellas que borrar

Puente (Con distorsión)

       B5        D5           G5             B5
   Déjame, que yo no tengo la culpa de verte caer
  D5                 G5
   Si yo no tengo la culpa de verte caer


Puente

     B5                 B5
E|-----------------|-----------------|
B|-----------------|-----------------|
G|---4~------------|---4~------------|
D|---4~------------|---4~------------|
A|---2~------------|---2~------------|
E|-----------------|-----------------|

      D5               G5
E|-----------------|-----------------|
B|-----------------|-----------------|
G|---7~------------|-----------------|
D|---7~------------|---5~------------|
A|---5~------------|---5~------------|
E|-----------------|---3~------------|

     B5                 B5
E|-----------------|-----------------|
B|-----------------|-----------------|
G|---4~------------|---4~------------|
D|---4~------------|---4~------------|
A|---2~------------|---2~------------|
E|-----------------|-----------------|

      D5               G5
E|-----------------|------------------|
B|-----------------|------------------|
G|---7~------------|------------------|
D|---7~------------|---5~-------------|
A|---5~------------|---5~-------------|
E|-----------------|---3~-------------|

Como el Intro:

      Bm                     G
E|---7-7-7-7-7-7-7-7----|---3-3-3-3-3----------|
B|---7-7-7-7-7-7-7-7----|---3-3-3-3-3----------|
G|---7-7-7-7-7-7-7-7----|---0-0-0-0-0----------|
D|---9-9-9-9-9-9-9-9----|---x-x-x-x-x----------|
A|---9-9-9-9-9-9-9-9----|---x-x-x-x-x----------|
E|---7-7-7-7-7-7-7-7----|---x-x-x-x-x----------|

      Bm
E|---7-7-7-7-7-7-7-7----|---7-7-7-7-7-7-7-7----|
B|---7-7-7-7-7-7-7-7----|---7-7-7-7-7-7-7-7----|
G|---7-7-7-7-7-7-7-7----|---7-7-7-7-7-7-7-7----|
D|---9-9-9-9-9-9-9-9----|---9-9-9-9-9-9-9-9----|
A|---9-9-9-9-9-9-9-9----|---9-9-9-9-9-9-9-9----|
E|---7-7-7-7-7-7-7-7----|---7-7-7-7-7-7-7-7----|

      Bm                     A
E|---7-7-7-7-7-7-7-7----|---5~------|
B|---7-7-7-7-7-7-7-7----|---5~------|
G|---7-7-7-7-7-7-7-7----|---6~------|
D|---9-9-9-9-9-9-9-9----|---7~------|
A|---9-9-9-9-9-9-9-9----|---7~------|
E|---7-7-7-7-7-7-7-7----|---5~------|

Verso 2 (Con el arpegio del Intro)
       Bm F#m Em G

   Pierdes la fe
   Cualquier esperanza es vana
   Y no se que creer
   Pepepepepero olvídame que nadie te ha llamado
   Y ya estas otra vez

Puente
       B5        D5           G5             B5
   Déjame, que yo no tengo la culpa de verte caer
  D5                 G5
   Si yo no tengo la culpa de verte que

Estribillo

   Entre dos tierras estas
   Y no dejas aire que respirar
   Entre dos tierras estas
   Y no dejas aire que respirar
Estribillo
     F           Cm             Gm
E|--1--1--1------3--3--3-----|----3--3---------3--3-----|
B|--1---1---1----4----4--4---|------3--3---------3--3---|
G|--2---------2--5---------5-|--3--------3--3---------3-|
D|--3------------5-----------|--5-----------5-----------|
A|--3------------------------|--5-----------5-----------|
E|--1------------------------|--------------------------|

    Cm                          Gm
E|--3--3--3------3--3--3-----|----3--3---------3--3-----|
B|--4---4---4----4----4--4---|------3--3---------3--3---|
G|--5---------5--5---------5-|--3--------3--3---------3-|
D|--5------------5-----------|--5-----------5-----------|
A|---------------------------|--5-----------5-----------|
E|---------------------------|--------------------------|

     F           Cm             Gm
E|--1--1--1------3--3--3-----|----3--3---------3--3-----|
B|--1---1---1----4----4--4---|------3--3---------3--3---|
G|--2---------2--5---------5-|--3--------3--3---------3-|
D|--3------------5-----------|--5-----------5-----------|
A|--3------------------------|--5-----------5-----------|
E|--1------------------------|--------------------------|

    Cm                          G
E|--3--3--3------3--3--3-----|--3-3-3-3-3-3-3-3---|
B|--4---4---4----4----4--4---|--3-3-3-3-3-3-3-3---|
G|--5---------5--5---------5-|--4-4-4-4-4-4-4-4---|
D|--5------------5-----------|--5-5-5-5-5-5-5-5---|
A|---------------------------|--5-5-5-5-5-5-5-5---|
E|---------------------------|--3-3-3-3-3-3-3-3---|

      G
E|--3-3-3-3-3-3-3-3---|
B|--3-3-3-3-3-3-3-3---|
G|--4-4-4-4-4-4-4-4---|
D|--5-5-5-5-5-5-5-5---|
A|--5-5-5-5-5-5-5-5---|
E|--3-3-3-3-3-3-3-3---|

Verso 3 (Con los mismos acordes, el arpegio lleva pequeñas modificaciones)
       Bm F#m Em G

   Déjalo ya
   No seas membrillo y permite pasar
   Y si no piensas echar atrás
   Tienes mucho barro que tragar

Puente
       B5        D5           G5             B5
   Déjame, que yo no tengo la culpa de verte caer
  D5                 G5
   Si yo no tengo la culpa de verte que

Estribillo (igual)

   Entre dos tierras estas
   Y no dejas aire que respirar
   Entre dos tierras estas
   Y no dejas aire que respirar

Solo
E|-------------|-------------|---------------------------|
B|-------------|-------------|-----------8-7h8p7---------|
G|-------7-----|-------9-----|-------9-----------9---7---|
D|---9-----9---|---7-----7---|---7-----------------9---9-|
A|-9---9-----9-|-9---9-----9-|-9---9---------------------|
E|-------------|-------------|---------------------------|

E|-------------------------|---------------------------|
B|-------------------------|---------------------------|
G|-------7---7-9b11r9p7-9~-|-----6-9--7-6-7-6h7p6------|
D|---9-----9---------------|---7------------------9----|
A|-9---9-------------------|-9----------------------9~-|
E|-------------------------|---------------------------|

E|-----------------|-----------------|
B|-----------------|-----------------|
G|-----------------|-----------------|
D|-9-9-9-9-9-9-9-9-|-7-7-7-7-7-7-7-7-|
A|-9-9-9-9-9-9-9-9-|-7-7-7-7-7-7-7-7-|
E|-7-7-7-7-7-7-7-7-|-5-5-5-5-5-5-5-5-|

E|-----------------|-----------------|
B|-----------------|-----------------|
G|-----------------|-----------------|
D|-5-5-5-5-4-4-4-4-|-9-9-9-9-9-9-9-9-|
A|-5-5-5-5-4-4-4-4-|-9-9-9-9-9-9-9-9-|
E|-3-3-3-3-2-2-2-2-|-7-7-7-7-7-7-7-7-|

E|-------------------------|-----------------|
B|-------------------------|-----------------|
G|-11-11-11-11-11-11-11-11-|-7-7-7-7-7-7-7-7-|
D|-11-11-11-11-11-11-11-11-|-7-7-7-7-7-7-7-7-|
A|-9--9--9--9--9--9--9--9--|-5-5-5-5-5-5-5-5-|
E|-------------------------|-----------------|

E|-------------------------------------------|
B|-------------------------------------------|
G|-12-12-12-12-12-12-------------------------|
D|-12-12-12-12-12-12-----12----11----9----7~-|
A|-10-10-10-10-10-10--10----10----10---10----|
E|-------------------------------------------|

E|-------------------------------------------|
B|-------------------------------------------|
G|-------------------------------------------|
D|-9-9-9-5-9-9-9-9-7-9-9-9-9-7-9-9-9-9-7-9-9-|
A|-9-9-9-7-9-9-9-9-7-9-9-9-9-7-9-9-9-9-7-9-9-|
E|-7-7-7-5-7-7-7-7-5-7-7-7-7-5-7-7-7-7-5-7-7-|

E|-----------10-------|-----------10-9----|----------10-----|
B|-----12-------12----|-----10---------10-|----12-------12~-|
G|-/11----11-------11-|-/11----11---------|-11----11--------|
D|--------------------|-------------------|-----------------|
A|--------------------|-------------------|-----------------|
E|--------------------|-------------------|-----------------|

E|------------------------------|-------------------------|
B|-10-8-7-----------------------|-------------------------|
G|--------9-7-6-----------------|-------7---7-9b11r9p7-9~-|
D|--------------9-7-------------|---9-----9---------------|
A|------------------10-9-7------|-9---9-------------------|
E|-------------------------10-7-|-------------------------|

E|---------------------------|
B|---------------------------|
G|-----6-9--7-6-7-6h7p6------|
D|---7------------------9----|
A|-9----------------------9~-|
E|---------------------------|

E|-------------------------|---------------------------|
B|-------------------------|---------------------------|
G|-------7---7-9b11r9p7-9~-|-----6-9--7-6-7-6h7p6------|
D|---9-----9---------------|---7------------------9----|
A|-9---9-------------------|-9----------------------9~-|
E|-------------------------|---------------------------|

E|-------------------------------------------|
B|-------------------------------------------|
G|-------------------------------------------|
D|-9-9-9-5-9-9-9-9-7-9-9-9-9-7-9-9-9-9-7-9-9-|
A|-9-9-9-7-9-9-9-9-7-9-9-9-9-7-9-9-9-9-7-9-9-|
E|-7-7-7-5-7-7-7-7-5-7-7-7-7-5-7-7-7-7-5-7-7-|

E|---------------------------15----15----14-|
B|-----15-17b19r17p15-----------------------|
G|-/16----------------16--15----15----15----| esta parte  x2
D|------------------------------------------|
A|------------------------------------------|
E|------------------------------------------|

E|-----------------------|-----------------------------|
B|-----------------------|-----------------------------|
G|---7-9-9b11r9p7--------|----7-9-9b11r9p7-------------|
D|-9--------------9-8s4~-|-/9--------------9-8--4-4-4--|
A|-----------------------|----------------------4-4-4--|
E|-----------------------|----------------------2-2-2--|
                                        Se queda en F#m

Puente
       B5        D5           G5             B5
   Déjame, que yo no tengo la culpa de verte caer
  D5                 G5
   Si yo no tengo la culpa de verte que

Estribillo
   F5        C5       G5
   Entre dos tierras estas
             C5        G5
   Y no dejas aire que respirar
  F5         C5       G5
   Entre dos tierras estas
             C5        G5
   Y no dejas aire que respirar

      G
E|--3-3-3-3-3-3-3-3-3-3-3-3-3-3-3--|
B|--3-3-3-3-3-3-3-3-3-3-3-3-3-3-3--|
G|--4-4-4-4-4-4-4-4-4-4-4-4-4-4-4--|
D|--5-5-5-5-5-5-5-5-5-5-5-5-5-5-5--|
A|--5-5-5-5-5-5-5-5-5-5-5-5-5-5-5--|
E|--3-3-3-3-3-3-3-3-3-3-3-3-3-3-3--|

      Bm
E|---7~----|
B|---7~----|
G|---7~----|
D|---9~----|
A|---9~----|
E|---7~----|
Outros vídeos desta música
    8 exibições
      • ½ Tom
      • Am
      • Bbm
      • Bm
      • Cm
      • C#m
      • Dm
      • Ebm
      • Em
      • Fm
      • F#m
      • Gm
      • G#m
    • Adicionar à lista

    Afinação da cifra

    Afinador online

      0 comentários

      Ver todos os comentários

      Entre para o Cifra Club PRO

      Tenha acesso a benefícios exclusivos no App e no Site

      • Chega de anúncios

      • Badges exclusivas

      • Mais recursos no app do Afinador

      • Atendimento Prioritário

      • Aumente seu limite de lista

      • Ajude a produzir mais conteúdo

      Cifra Club Pro

      Aproveite o Cifra Club com benefícios exclusivos e sem anúncios
      Cifra Club Pro
      Aproveite o Cifra Club com benefícios exclusivos e sem anúncios
      Ops (: Contenido disponible sólo en portugués.
      OK