Cifra Club

Hechizo

Héroes Del Silencio

Cifra (violão e guitarra)
Selo Cifra Club: esta cifra foi revisada para atender aos critérios oficiais da nossa Equipe de Qualidade.
tom: Am
Intro:
                          x12 y despues esto x4
E||-----------------------|          |-----------------------|
B||-----------------------|          |-----------------------|
G||-----------------------|          |-----------------------|
D||-----5-------5----5----|          |-----5-------5----5----|
A||--3-------3------------|          |--7-------7------------|
E||-----------------------|          |-----------------------|

Despues empieza el verso:
                         No es la primera vez.....
E|-----------------------|-----------------------|-----------------------|
B|-----------------------|-----------------------|-----------------------|
G|-----------------------|-----------------------|-----------------------|
D|-----5-------5----5----|-----5-------5----5----|-----5-------5----5----|
A|--3-------3------------|--3-------3------------|--3-------3------------|
E|-----------------------|-----------------------|-----------------------|

tan cerca.........
E|-----------------------|-----------------------|-----------------------|
B|-----------------------|-----------------------|-----------------------|
G|-----------------------|-----------------------|-----------------------|
D|-----5--------5---5----|-----5-------5---5-----|-----5-------5----5----|
A|--7-------7------------|--7-------7------------|--7-------7------------|
E|-----------------------|-----------------------|-----------------------|

           y ahora     por fin..........
E|-----------------------|-----------------------|-----------------------|
B|-----------------------|-----------------------|-----------------------|
G|-----------------------|-----------------------|-----------------------|
D|-----5-------5----5----|-----5-------5----5----|-----5-------5----5----|
A|--7-------7------------|--3-------3------------|--3-------3------------|
E|-----------------------|-----------------------|-----------------------|

...controlar
E|-----------------------|-----------------------|
B|-----------------------|-----------------------|
G|-----------------------|-----------------------|
D|-----5-------5----5----|-----5-------5----5----|
A|--7-------7------------|--7-------7------------|
E|-----------------------|-----------------------|

ni siquiera tu brazos___________y sientes que estan
E|------------------------|--------------------|----------------------|
B|------------------------|--------------------|-----6--5-------------|
G|-------------7-------5--|--------------------|-----------5----------|
D|-----5------------------|-------9------------|----------------------|
A|--7-------7-------7-----|----7---------------|--8-------------------|
E|------------------------|--------------------|----------------------|

 completamente agotados                       y no esntiendes
E|-----------------------|--3----3--3----3----3--|--3----3----3----3----|
B|---------5-------------|--3----3--3----3----3--|--3----3----3----3----|
G|-----5-------5---------|--0----0--0----0----0--|--0----0----0----0----|
D|--7--------------7-----|--0----0--0----0----0--|--0----0----0----0----|
A|-----------------------|-----------------------|----------------------|
E|-----------------------|-----------------------|----------------------|

porque.........
E|--0----0--0----0--0----|--0----0--0----0--0----|--0----0--0----0--0----|
B|--0----0--0----0--0----|--0----0--0----0--0----|--0----0--0----0--0----|
G|--9----9--9----9--9----|--9----9--9----9--9----|--9----9--9----9--9----|
D|--9----9--9----9--9----|--9----9--9----9--9----|--9----9--9----9--9----|
A|--7----7--7----7--7----|--7----7--7----7--7----|--7----7--7----7--7----|
E|-----------------------|-----------------------|-----------------------|

   uhhhhhh  uhhhhhhhh
E|--0----0--0----0--0----|
B|--0----0--0----0--0----|
G|--9----9--9----9--9----|
D|--9----9--9----9--9----|
A|--7----7--7----7--7----|
E|-----------------------|


Se repite el verso "IGUAL"

Despues viene el CORO:

 Vamonos.................
  F
E|--------------------------|--------------------------|
B|--6--6--6--6--6--6--6--6--|--6--6--6--6--6--6--6--6--|
G|--5--5--5--5--5--5--5--5--|--5--5--5--5--5--5--5--5--|
D|--7--7--7--7--7--7--7--7--|--7--7--7--7--7--7--7--7--|
A|--8--8--8--8--8--8--8--8--|--8--8--8--8--8--8--8--8--|
E|--------------------------|--------------------------|

 Exterior..............
  C
E|--0--0--0--0--0--0--0--0--|--0--0--0--0--0--0--0--0--|
B|--1--1--1--1--1--1--1--1--|--1--1--1--1--1--1--1--1--|
G|--0--0--0--0--0--0--0--0--|--0--0--0--0--0--0--0--0--|
D|--2--2--2--2--2--2--2--2--|--2--2--2--2--2--2--2--2--|
A|--3--3--3--3--3--3--3--3--|--3--3--3--3--3--3--3--3--|
E|--------------------------|--------------------------|

  Los  ojos.........
  Am
E|--0--0--0--0--0--0--0--0--|--0--0--0--0--0--0--0--0--|
B|--1--1--1--1--1--1--1--1--|--1--1--1--1--1--1--1--1--|
G|--2--2--2--2--2--2--2--2--|--2--2--2--2--2--2--2--2--|
D|--2--2--2--2--2--2--2--3--|--2--2--2--2--2--2--2--3--|
A|--0--0--0--0--0--0--0--0--|--0--0--0--0--0--0--0--0--|
E|--------------------------|--------------------------|

 Color............                                   x2      Mientras toda da igual.........
  G
E|--3--3--3--3--3--3--3--3--|--3--3--3--3--3--3--3--3--|
B|--0--0--0--0--0--0--0--0--|--0--0--0--0--0--0--0--0--|
G|--0--0--0--0--0--0--0--0--|--0--0--0--0--0--0--0--0--|
D|--0--0--0--0--0--0--0--0--|--0--0--0--0--0--0--0--0--|
A|--2--2--2--2--2--2--2--2--|--2--2--2--2--2--2--2--2--|
E|--3--3--3--3--3--3--3--3--|--3--3--3--3--3--3--3--3--|

Interlude:
                                                                          Mientras toda da igual.........
E|-----------------------|-----------------------|-----------------------|-----------------------|
B|-----------------------|-------------3---------|-------------5h3-------|-------------5h3-------|
G|-----------------------|-----------------------|-----------------------|-----------------------|
D|-----5-------5----5----|-----5------------5----|-----5------------5----|-----5------------5----|
A|--3-------3------------|--3-------3------------|--3-------3------------|--3-------3------------|
E|-----------------------|-----------------------|-----------------------|-----------------------|

                       x4
E|-----------------------|
B|-----------------------|
G|-----------------------|
D|-----5--------5---5----|
A|--7-------7------------|
E|-----------------------|

E|-----------------------|-----------------------|-----------------------|-----------------------|
B|-------------3---------|-------------5h3-------|-------------5h3-------|-------------5h3-------|
G|-----------------------|-----------------------|-----------------------|-----------------------|
D|-----5------------5----|-----5------------5----|-----5------------5----|-----5------------5----|
A|--3-------3------------|--3-------3------------|--3-------3------------|--3-------3------------|
E|-----------------------|-----------------------|-----------------------|-----------------------|


E|-------------7----7----|-------------7----7----|-------------7----7----|
B|-------------0----0----|-------------0----0----|-------------0----0----|
G|-------------0----0----|-------------0----0----|-------------0----0----|
D|-----5-------5----5----|-----5-------5----5----|-----5-------5----5----|
A|--7------7-------------|--7------7-------------|--7------7-------------|
E|-----------------------|-----------------------|-----------------------|


Despues se repite el verso "IGUAL"
Asi como el CORO (x2) es lo mismo.


Y despues viende el "G  O"

E|--------|----------------------------|----------------------------|
B|---0----|------13--------13----13----|------13--------13----13----|
G|---0----|--12--------12--------------|--12--------12--------------|
D|---0----|----------------------------|----------------------------|
A|--------|----------------------------|----------------------------|
E|--------|----------------------------|----------------------------|

E|----------------------------|----------------------------|
B|------12--------12----12----|------12--------12----12----|
G|--12--------12--------------|--12--------12--------------|
D|----------------------------|----------------------------|
A|----------------------------|----------------------------|
E|----------------------------|----------------------------|

E|----------------------------|----------------12----------|
B|------13--------13----13----|------13--------------13----|
G|--12--------12--------------|--12--------12--------------|
D|----------------------------|----------------------------|
A|----------------------------|----------------------------|
E|----------------------------|----------------------------|

E|----------------------------|----------------------------|
B|------12--------12----12----|------12--------12----12----|
G|--12--------12--------------|--12--------12--------------|
D|----------------------------|----------------------------|
A|----------------------------|----------------------------|
E|----------------------------|----------------------------|

                  Aqui es rapido     (para que suene bien)
E|-----------------12~-----15--|--12-----12---------------------------------|
B|-------------10--------------|------13-----13-13--12-----12------------8--|
G|----------9------------------|------------------------12-----12-12--9-----|
D|------10---------------------|--------------------------------------------|
A|--12-------------------------|--------------------------------------------|
E|-----------------------------|--------------------------------------------|

E|------------8--12--10--8------|---10-8----------------|
B|---------8----------------12--|----------12---10------|
G|------9-----------------------|--------------------9--|
D|--10--------------------------|-----------------------|
A|------------------------------|-----------------------|
E|------------------------------|-----------------------|

E|----------------------|------------------------|--7--7----7--7----7----|
B|-----------6--5~------| 5--6--5------5----------|--8--8----8--8----8----|
G|--------5-------------|---------7-------7------|--7--7----7--7----7----|
D|-----7----------------|------------------------|-----------------------|
A|--8-------------------|------------------------|-----------------------|
E|----------------------|------------------------|-----------------------|

E|--7--7----7--7----7----|------------------------|------------------------|
B|--8--8----8--8----8----|--5--5----5----5--5-----|--5--5----5----5--5--5--|
G|--7--7----7--7----7----|--5--5----5----5--5--5--|--5--5----5----5--5--5--|
D|-----------------------|--5--5----5----5--5--5--|--5--5----5----5--5--5--|
A|-----------------------|------------------------|------------------------|
E|-----------------------|------------------------|------------------------|

E|------------------------|--------------------------|----------------------|
B|--5--5----5----5--5--5--|--5--5--5--5--5--5--5--5--|-----------8---7------|
G|--5--5----5----5--5--5--|--5--5--5--5--5--5--5--5--|-------9---------9----|
D|--5--5----5----5--5--5--|--5--5--5--5--5--5--5--5--|----9-----------------|
A|------------------------|--------------------------|--7-------------------|
E|------------------------|--------------------------|----------------------|

E|----------------------|----------------------|----------------------|
B|-----------8---7------|-----------8---7------|-----------8---7------|
G|-------9---------9----|-------9---------9----|-------9---------9----|
D|----9-----------------|----9-----------------|----9-----------------|
A|--7-------------------|--7-------------------|--7-------------------|
E|----------------------|----------------------|----------------------|

E|-----------5--8~------|-8--8--7--5-----------|-----------5--8~------|
B|--------5-------------|--------------8---5---|--------5-------------|
G|-----5----------------|----------------------|-----5----------------|
D|--7-------------------|----------------------|--7-------------------|
A|----------------------|----------------------|----------------------|
E|----------------------|----------------------|----------------------|

E|-8--8--7--5-----------|--------------5-----------|---------------------|
B|--------------8---5---|-----------6-----8--6--5--|--8--6--5------------|
G|----------------------|--------5-----------------|-----------7---------|
D|----------------------|-----7--------------------|---------------5~----|
A|----------------------|--7-----------------------|---------------------|
E|----------------------|--------------------------|---------------------|

E|-----7-------7----7--7--|--7--7--7----7----7----|------------------|
B|-----8-------8----8--8--|--8--8--8----8----8----|------------------|
G|--7-------7-------7--7--|--7--7--7----7----7----|------------------|
D|------------------------|-----------------------|------------------|
A|------------------------|-----------------------|------------------|
E|------------------------|-----------------------|------------------|

Otra vez el CORO.

Y el final:
                x4         Nueve...       Ocho...          Siete...     Seis...
E|-0--0--0--0--0--0--| |--1--1--1--1--1--1--1--1---||--2--2--2--2--2--2--2--2---|
B|-0--0--0--0--0--0--| |--1--1--1--1--1--1--1--1---||--2--2--2--2--2--2--2--2---|
G|-------------------| |---------------------------||---------------------------|
D|-------------------| |--3--3--3--3--3--3--3--3---||--4--4--4--4--4--4--4--4---|
A|-7--7--7--7--7--7--| |--3--3--3--3--3--3--3--3---||---------------------------|
E|-7--7--7--7--7--7--| |---------------------------||---------------------------|

 Cinco...                      Cuatro...
E|--3--3--3--3--3--3--3--3---| |--4--4--4--4--4--4--4--4---|
B|--3--3--3--3--3--3--3--3---| |--4--4--4--4--4--4--4--4---|
G|--0--0--0--0--0--0--0--0---| |---------------------------|
D|--0--0--0--0--0--0--0--0---| |--6--6--6--6--6--6--6--6---|
A|---------------------------| |--6--6--6--6--6--6--6--6---|
E|---------------------------| |---------------------------|

 Tres...                  Dos...
E|--5--5--5--5--5--5--5--5---| |--6--6--6--6--6--6--6--6---|
B|--5--5--5--5--5--5--5--5---| |---------------------------|
G|---------------------------| |--8--8--8--8--8--8--8--8---|
D|--7--7--7--7--7--7--7--7---| |--8--8--8--8--8--8--8--8---|
A|--7--7--7--7--7--7--7--7---| |---------------------------|
E|---------------------------| |---------------------------|

 Uno...                   Cero...
E|--7--7--7--7--7--7--7--7---| |--8~--------|
B|--7--7--7--7--7--7--7--7---| |--8~--------|
G|---------------------------| |------------|
D|--9--9--9--9--9--9--9--9---| |--10~-------|
A|--9--9--9--9--9--9--9--9---| |--10~-------|
E|---------------------------| |------------|
Outros vídeos desta música
    18 exibições
      • ½ Tom
      • Am
      • Bbm
      • Bm
      • Cm
      • C#m
      • Dm
      • Ebm
      • Em
      • Fm
      • F#m
      • Gm
      • G#m
    • Adicionar à lista

    Afinação da cifra

    Afinador online

      0 comentários

      Ver todos os comentários

      Entre para o Cifra Club PRO

      Tenha acesso a benefícios exclusivos no App e no Site

      • Chega de anúncios

      • Badges exclusivas

      • Mais recursos no app do Afinador

      • Atendimento Prioritário

      • Aumente seu limite de lista

      • Ajude a produzir mais conteúdo

      Cifra Club Pro

      Aproveite o Cifra Club com benefícios exclusivos e sem anúncios
      Cifra Club Pro
      Aproveite o Cifra Club com benefícios exclusivos e sem anúncios
      Ops (: Contenido disponible sólo en portugués.
      OK